  0
SECTION
  2
HEADER
  9
$ACADVER
  1
AC1015
  9
$ACADMAINTVER
 70
     6
  9
$DWGCODEPAGE
  3
ANSI_1252
  9
$INSBASE
 10
0.0
 20
0.0
 30
0.0
  9
$EXTMIN
 10
0.0
 20
0.0
 30
0.0
  9
$EXTMAX
 10
210.0
 20
297.0
 30
0.0
  9
$LIMMIN
 10
0.0
 20
0.0
  9
$LIMMAX
 10
210.0
 20
297.0
  9
$ORTHOMODE
 70
     0
  9
$REGENMODE
 70
     1
  9
$FILLMODE
 70
     1
  9
$QTEXTMODE
 70
     0
  9
$MIRRTEXT
 70
     1
  9
$LTSCALE
 40
1.0
  9
$ATTMODE
 70
     1
  9
$TEXTSIZE
 40
2.5
  9
$TRACEWID
 40
1.0
  9
$TEXTSTYLE
  7
Standard
  9
$CLAYER
  8
0
  9
$CELTYPE
  6
ByLayer
  9
$CECOLOR
 62
   256
  9
$CELTSCALE
 40
1.0
  9
$DISPSILH
 70
     0
  9
$DIMSCALE
 40
1.0
  9
$DIMASZ
 40
2.5
  9
$DIMEXO
 40
0.625
  9
$DIMDLI
 40
3.75
  9
$DIMRND
 40
0.0
  9
$DIMDLE
 40
0.0
  9
$DIMEXE
 40
1.25
  9
$DIMTP
 40
0.0
  9
$DIMTM
 40
0.0
  9
$DIMTXT
 40
2.5
  9
$DIMCEN
 40
2.5
  9
$DIMTSZ
 40
0.0
  9
$DIMTOL
 70
     0
  9
$DIMLIM
 70
     0
  9
$DIMTIH
 70
     0
  9
$DIMTOH
 70
     0
  9
$DIMSE1
 70
     0
  9
$DIMSE2
 70
     0
  9
$DIMTAD
 70
     1
  9
$DIMZIN
 70
     8
  9
$DIMBLK
  1

  9
$DIMASO
 70
     1
  9
$DIMSHO
 70
     1
  9
$DIMPOST
  1

  9
$DIMAPOST
  1

  9
$DIMALT
 70
     0
  9
$DIMALTD
 70
     3
  9
$DIMALTF
 40
0.0393700787
  9
$DIMLFAC
 40
1.0
  9
$DIMTOFL
 70
     1
  9
$DIMTVP
 40
0.0
  9
$DIMTIX
 70
     0
  9
$DIMSOXD
 70
     0
  9
$DIMSAH
 70
     0
  9
$DIMBLK1
  1

  9
$DIMBLK2
  1

  9
$DIMSTYLE
  2
ISO-25
  9
$DIMCLRD
 70
     0
  9
$DIMCLRE
 70
     0
  9
$DIMCLRT
 70
     0
  9
$DIMTFAC
 40
1.0
  9
$DIMGAP
 40
0.625
  9
$DIMJUST
 70
     0
  9
$DIMSD1
 70
     0
  9
$DIMSD2
 70
     0
  9
$DIMTOLJ
 70
     0
  9
$DIMTZIN
 70
     8
  9
$DIMALTZ
 70
     0
  9
$DIMALTTZ
 70
     0
  9
$DIMUPT
 70
     0
  9
$DIMDEC
 70
     2
  9
$DIMTDEC
 70
     2
  9
$DIMALTU
 70
     2
  9
$DIMALTTD
 70
     3
  9
$DIMTXSTY
  7
Standard
  9
$DIMAUNIT
 70
     0
  9
$DIMADEC
 70
     0
  9
$DIMALTRND
 40
0.0
  9
$DIMAZIN
 70
     0
  9
$DIMDSEP
 70
    44
  9
$DIMATFIT
 70
     3
  9
$DIMFRAC
 70
     0
  9
$DIMLDRBLK
  1

  9
$DIMLUNIT
 70
     2
  9
$DIMLWD
 70
    -2
  9
$DIMLWE
 70
    -2
  9
$DIMTMOVE
 70
     0
  9
$LUNITS
 70
     2
  9
$LUPREC
 70
     4
  9
$SKETCHINC
 40
1.0
  9
$FILLETRAD
 40
10.0
  9
$AUNITS
 70
     0
  9
$AUPREC
 70
     0
  9
$MENU
  1
.
  9
$ELEVATION
 40
0.0
  9
$PELEVATION
 40
0.0
  9
$THICKNESS
 40
0.0
  9
$LIMCHECK
 70
     0
  9
$CHAMFERA
 40
10.0
  9
$CHAMFERB
 40
10.0
  9
$CHAMFERC
 40
20.0
  9
$CHAMFERD
 40
0.0
  9
$SKPOLY
 70
     0
  9
$TDCREATE
 40
2456350.48062868
  9
$TDUCREATE
 40
2456350.438962014
  9
$TDUPDATE
 40
2456350.480628692
  9
$TDUUPDATE
 40
2456350.438962026
  9
$TDINDWG
 40
0.0000000116
  9
$TDUSRTIMER
 40
0.0000000116
  9
$USRTIMER
 70
     1
  9
$ANGBASE
 50
0.0
  9
$ANGDIR
 70
     0
  9
$PDMODE
 70
     0
  9
$PDSIZE
 40
0.0
  9
$PLINEWID
 40
0.0
  9
$SPLFRAME
 70
     0
  9
$SPLINETYPE
 70
     6
  9
$SPLINESEGS
 70
     8
  9
$HANDSEED
  5
1AA
  9
$SURFTAB1
 70
     6
  9
$SURFTAB2
 70
     6
  9
$SURFTYPE
 70
     6
  9
$SURFU
 70
     6
  9
$SURFV
 70
     6
  9
$UCSBASE
  2

  9
$UCSNAME
  2

  9
$UCSORG
 10
0.0
 20
0.0
 30
0.0
  9
$UCSXDIR
 10
1.0
 20
0.0
 30
0.0
  9
$UCSYDIR
 10
0.0
 20
1.0
 30
0.0
  9
$UCSORTHOREF
  2

  9
$UCSORTHOVIEW
 70
     0
  9
$UCSORGTOP
 10
0.0
 20
0.0
 30
0.0
  9
$UCSORGBOTTOM
 10
0.0
 20
0.0
 30
0.0
  9
$UCSORGLEFT
 10
0.0
 20
0.0
 30
0.0
  9
$UCSORGRIGHT
 10
0.0
 20
0.0
 30
0.0
  9
$UCSORGFRONT
 10
0.0
 20
0.0
 30
0.0
  9
$UCSORGBACK
 10
0.0
 20
0.0
 30
0.0
  9
$PUCSBASE
  2

  9
$PUCSNAME
  2

  9
$PUCSORG
 10
0.0
 20
0.0
 30
0.0
  9
$PUCSXDIR
 10
1.0
 20
0.0
 30
0.0
  9
$PUCSYDIR
 10
0.0
 20
1.0
 30
0.0
  9
$PUCSORTHOREF
  2

  9
$PUCSORTHOVIEW
 70
     0
  9
$PUCSORGTOP
 10
0.0
 20
0.0
 30
0.0
  9
$PUCSORGBOTTOM
 10
0.0
 20
0.0
 30
0.0
  9
$PUCSORGLEFT
 10
0.0
 20
0.0
 30
0.0
  9
$PUCSORGRIGHT
 10
0.0
 20
0.0
 30
0.0
  9
$PUCSORGFRONT
 10
0.0
 20
0.0
 30
0.0
  9
$PUCSORGBACK
 10
0.0
 20
0.0
 30
0.0
  9
$USERI1
 70
     0
  9
$USERI2
 70
     0
  9
$USERI3
 70
     0
  9
$USERI4
 70
     0
  9
$USERI5
 70
     0
  9
$USERR1
 40
0.0
  9
$USERR2
 40
0.0
  9
$USERR3
 40
0.0
  9
$USERR4
 40
0.0
  9
$USERR5
 40
0.0
  9
$WORLDVIEW
 70
     1
  9
$SHADEDGE
 70
     3
  9
$SHADEDIF
 70
    70
  9
$TILEMODE
 70
     1
  9
$MAXACTVP
 70
    64
  9
$PINSBASE
 10
0.0
 20
0.0
 30
0.0
  9
$PLIMCHECK
 70
     0
  9
$PEXTMIN
 10
0.0
 20
0.0
 30
0.0
  9
$PEXTMAX
 10
210.0
 20
297.0
 30
0.0
  9
$PLIMMIN
 10
0.0
 20
0.0
  9
$PLIMMAX
 10
210.0
 20
297.0
  9
$UNITMODE
 70
     0
  9
$VISRETAIN
 70
     1
  9
$PLINEGEN
 70
     0
  9
$PSLTSCALE
 70
     1
  9
$TREEDEPTH
 70
  3020
  9
$CMLSTYLE
  2
Standard
  9
$CMLJUST
 70
     0
  9
$CMLSCALE
 40
20.0
  9
$PROXYGRAPHICS
 70
     1
  9
$MEASUREMENT
 70
     1
  9
$CELWEIGHT
370
    -1
  9
$ENDCAPS
280
     0
  9
$JOINSTYLE
280
     0
  9
$LWDISPLAY
290
     0
  9
$INSUNITS
 70
     4
  9
$HYPERLINKBASE
  1

  9
$STYLESHEET
  1

  9
$XEDIT
290
     1
  9
$CEPSNTYPE
380
     0
  9
$PSTYLEMODE
290
     1
  9
$FINGERPRINTGUID
  2
{7967289C-E5E8-4AB6-B84D-B0C95379DE5E}
  9
$VERSIONGUID
  2
{FAEB1C32-E019-11D5-929B-00C0DF256EC4}
  9
$EXTNAMES
290
     1
  9
$PSVPSCALE
 40
0.0
  9
$OLESTARTUP
290
     0
  0
ENDSEC
  0
SECTION
  2
CLASSES
  0
CLASS
  1
ACDBDICTIONARYWDFLT
  2
AcDbDictionaryWithDefault
  3
ObjectDBX Classes
 90
        0
280
     0
281
     0
  0
CLASS
  1
ACDBPLACEHOLDER
  2
AcDbPlaceHolder
  3
ObjectDBX Classes
 90
        0
280
     0
281
     0
  0
CLASS
  1
LAYOUT
  2
AcDbLayout
  3
ObjectDBX Classes
 90
        0
280
     0
281
     0
  0
ENDSEC
  0
SECTION
  2
TABLES
  0
TABLE
  2
VPORT
  5
8
330
0
100
AcDbSymbolTable
 70
     1
  0
VPORT
  5
29
330
8
100
AcDbSymbolTableRecord
100
AcDbViewportTableRecord
  2
*Active
 70
     0
 10
0.0
 20
0.0
 11
1.0
 21
1.0
 12
344.1869158879
 22
148.5
 13
0.0
 23
0.0
 14
10.0
 24
10.0
 15
10.0
 25
10.0
 16
0.0
 26
0.0
 36
1.0
 17
0.0
 27
0.0
 37
0.0
 40
297.0
 41
1.9729729729
 42
50.0
 43
0.0
 44
0.0
 50
0.0
 51
0.0
 71
     0
 72
   100
 73
     1
 74
     3
 75
     0
 76
     0
 77
     0
 78
     0
281
     0
 65
     1
110
0.0
120
0.0
130
0.0
111
1.0
121
0.0
131
0.0
112
0.0
122
1.0
132
0.0
 79
     0
146
0.0
  0
ENDTAB
  0
TABLE
  2
LTYPE
  5
5
330
0
100
AcDbSymbolTable
 70
     2
  0
LTYPE
  5
14
330
5
100
AcDbSymbolTableRecord
100
AcDbLinetypeTableRecord
  2
ByBlock
 70
     0
  3

 72
    65
 73
     0
 40
0.0
  0
LTYPE
  5
15
330
5
100
AcDbSymbolTableRecord
100
AcDbLinetypeTableRecord
  2
ByLayer
 70
     0
  3

 72
    65
 73
     0
 40
0.0
  0
LTYPE
  5
16
330
5
100
AcDbSymbolTableRecord
100
AcDbLinetypeTableRecord
  2
Continuous
 70
     0
  3
Solid line
 72
    65
 73
     0
 40
0.0
  0
LTYPE
  5
55
330
5
100
AcDbSymbolTableRecord
100
AcDbLinetypeTableRecord
  2
CENTER2
 70
     0
  3
Center (.5x) ___ _ ___ _ ___ _ ___ _ ___ _ ___
 72
    65
 73
     4
 40
28.575
 49
19.05
 74
     4
 75
     0
340
0
 46
0.0
 50
0.0
 44
0.0
 45
0.0
 49
-3.175
 74
     4
 75
     0
340
0
 46
0.0
 50
0.0
 44
0.0
 45
0.0
 49
3.175
 74
     4
 75
     0
340
0
 46
0.0
 50
0.0
 44
0.0
 45
0.0
 49
-3.175
 74
     4
 75
     0
340
0
 46
0.0
 50
0.0
 44
0.0
 45
0.0
  0
ENDTAB
  0
TABLE
  2
LAYER
  5
2
330
0
100
AcDbSymbolTable
 70
     3
  0
LAYER
  5
10
330
2
100
AcDbSymbolTableRecord
100
AcDbLayerTableRecord
  2
0
 70
     0
 62
     7
  6
Continuous
370
    -3
390
F
  0
LAYER
  5
2C
330
2
100
AcDbSymbolTableRecord
100
AcDbLayerTableRecord
  2
Kontur
 70
     0
 62
     7
  6
Continuous
370
    -3
390
F
  0
LAYER
  5
18D
330
2
100
AcDbSymbolTableRecord
100
AcDbLayerTableRecord
  2
Rahmen
 70
     0
 62
     7
  6
Continuous
370
    -3
390
F
  0
ENDTAB
  0
TABLE
  2
STYLE
  5
3
330
0
100
AcDbSymbolTable
 70
     2
  0
STYLE
  5
11
330
3
100
AcDbSymbolTableRecord
100
AcDbTextStyleTableRecord
  2
Standard
 70
     0
 40
0.0
 41
1.0
 50
0.0
 71
     0
 42
2.5
  3
txt
  4

  0
STYLE
  5
2A
330
3
100
AcDbSymbolTableRecord
100
AcDbTextStyleTableRecord
  2
SEACAD_seiso_ttf
 70
     0
 40
0.0
 41
1.0
 50
0.0
 71
     0
 42
0.2
  3
seiso.ttf
  4

  0
ENDTAB
  0
TABLE
  2
VIEW
  5
6
330
0
100
AcDbSymbolTable
 70
     0
  0
ENDTAB
  0
TABLE
  2
UCS
  5
7
330
0
100
AcDbSymbolTable
 70
     0
  0
ENDTAB
  0
TABLE
  2
APPID
  5
9
330
0
100
AcDbSymbolTable
 70
     1
  0
APPID
  5
12
330
9
100
AcDbSymbolTableRecord
100
AcDbRegAppTableRecord
  2
ACAD
 70
     0
  0
ENDTAB
  0
TABLE
  2
DIMSTYLE
  5
A
330
0
100
AcDbSymbolTable
 70
     1
100
AcDbDimStyleTable
  0
DIMSTYLE
105
27
330
A
100
AcDbSymbolTableRecord
100
AcDbDimStyleTableRecord
  2
ISO-25
 70
     0
 41
2.5
 42
0.625
 43
3.75
 44
1.25
 73
     0
 74
     0
 77
     1
 78
     8
140
2.5
141
2.5
143
0.0393700787
147
0.625
171
     3
172
     1
271
     2
272
     2
274
     3
278
    44
283
     0
284
     8
340
11
  0
ENDTAB
  0
TABLE
  2
BLOCK_RECORD
  5
1
330
0
100
AcDbSymbolTable
 70
    11
  0
BLOCK_RECORD
  5
1F
330
1
100
AcDbSymbolTableRecord
100
AcDbBlockTableRecord
  2
*Model_Space
340
22
  0
BLOCK_RECORD
  5
1B
330
1
100
AcDbSymbolTableRecord
100
AcDbBlockTableRecord
  2
*Paper_Space
340
1E
  0
BLOCK_RECORD
  5
53
330
1
100
AcDbSymbolTableRecord
100
AcDbBlockTableRecord
  2
SEANNOT_GROUP
340
0
102
{BLKREFS
331
54
102
}
1001
ACAD
1000
DesignCenter Data
1002
{
1070
     1
1070
     0
1002
}
  0
BLOCK_RECORD
  5
59
330
1
100
AcDbSymbolTableRecord
100
AcDbBlockTableRecord
  2
SEANNOT_GROUP1
340
0
102
{BLKREFS
331
5A
102
}
1001
ACAD
1000
DesignCenter Data
1002
{
1070
     1
1070
     0
1002
}
  0
BLOCK_RECORD
  5
5E
330
1
100
AcDbSymbolTableRecord
100
AcDbBlockTableRecord
  2
SEANNOT_GROUP2
340
0
102
{BLKREFS
331
5F
102
}
1001
ACAD
1000
DesignCenter Data
1002
{
1070
     1
1070
     0
1002
}
  0
BLOCK_RECORD
  5
63
330
1
100
AcDbSymbolTableRecord
100
AcDbBlockTableRecord
  2
SEANNOT_GROUP3
340
0
102
{BLKREFS
331
64
102
}
1001
ACAD
1000
DesignCenter Data
1002
{
1070
     1
1070
     0
1002
}
  0
BLOCK_RECORD
  5
168
330
1
100
AcDbSymbolTableRecord
100
AcDbBlockTableRecord
  2
SEANNOT_GROUP4
340
0
102
{BLKREFS
331
169
102
}
1001
ACAD
1000
DesignCenter Data
1002
{
1070
     1
1070
     0
1002
}
  0
BLOCK_RECORD
  5
16F
330
1
100
AcDbSymbolTableRecord
100
AcDbBlockTableRecord
  2
SEANNOT_GROUP5
340
0
102
{BLKREFS
331
170
102
}
1001
ACAD
1000
DesignCenter Data
1002
{
1070
     1
1070
     0
1002
}
  0
BLOCK_RECORD
  5
175
330
1
100
AcDbSymbolTableRecord
100
AcDbBlockTableRecord
  2
SEANNOT_GROUP6
340
0
102
{BLKREFS
331
176
102
}
1001
ACAD
1000
DesignCenter Data
1002
{
1070
     1
1070
     0
1002
}
  0
BLOCK_RECORD
  5
17B
330
1
100
AcDbSymbolTableRecord
100
AcDbBlockTableRecord
  2
SEANNOT_GROUP7
340
0
102
{BLKREFS
331
17C
102
}
1001
ACAD
1000
DesignCenter Data
1002
{
1070
     1
1070
     0
1002
}
  0
BLOCK_RECORD
  5
183
330
1
100
AcDbSymbolTableRecord
100
AcDbBlockTableRecord
  2
SEANNOT_GROUP8
340
0
102
{BLKREFS
331
184
102
}
1001
ACAD
1000
DesignCenter Data
1002
{
1070
     1
1070
     0
1002
}
  0
BLOCK_RECORD
  5
188
330
1
100
AcDbSymbolTableRecord
100
AcDbBlockTableRecord
  2
SEANNOT_GROUP9
340
0
102
{BLKREFS
331
189
102
}
1001
ACAD
1000
DesignCenter Data
1002
{
1070
     1
1070
     0
1002
}
  0
ENDTAB
  0
ENDSEC
  0
SECTION
  2
BLOCKS
  0
BLOCK
  5
20
330
1F
100
AcDbEntity
  8
0
100
AcDbBlockBegin
  2
*Model_Space
 70
     0
 71
     0
 10
0.0
 20
0.0
 30
0.0
  3
*Model_Space
  1

  0
ENDBLK
  5
21
330
1F
100
AcDbEntity
  8
0
100
AcDbBlockEnd
  0
BLOCK
  5
1C
330
1B
100
AcDbEntity
 67
     1
  8
0
100
AcDbBlockBegin
  2
*Paper_Space
 70
     0
 71
     0
 10
0.0
 20
0.0
 30
0.0
  3
*Paper_Space
  1

  0
ENDBLK
  5
1D
330
1B
100
AcDbEntity
 67
     1
  8
0
100
AcDbBlockEnd
  0
BLOCK
  5
57
330
53
100
AcDbEntity
  8
0
100
AcDbBlockBegin
  2
SEANNOT_GROUP
 70
     0
 71
     0
 10
0.0
 20
0.0
 30
0.0
  3
SEANNOT_GROUP
  1

  0
LINE
  5
56
330
53
100
AcDbEntity
  8
Kontur
  6
CENTER2
 62
   136
370
    30
100
AcDbLine
 10
63.3559684693
 20
211.2213129503
 30
0.0
 11
63.3559684693
 21
112.7213129503
 31
0.0
  0
ENDBLK
  5
58
330
53
100
AcDbEntity
  8
0
100
AcDbBlockEnd
  0
BLOCK
  5
5C
330
59
100
AcDbEntity
  8
0
100
AcDbBlockBegin
  2
SEANNOT_GROUP1
 70
     0
 71
     0
 10
0.0
 20
0.0
 30
0.0
  3
SEANNOT_GROUP1
  1

  0
LINE
  5
5B
330
59
100
AcDbEntity
  8
Kontur
  6
CENTER2
 62
   136
370
    30
100
AcDbLine
 10
61.6059684693
 20
209.4713129503
 30
0.0
 11
160.1059684693
 21
209.4713129503
 31
0.0
  0
ENDBLK
  5
5D
330
59
100
AcDbEntity
  8
0
100
AcDbBlockEnd
  0
BLOCK
  5
61
330
5E
100
AcDbEntity
  8
0
100
AcDbBlockBegin
  2
SEANNOT_GROUP2
 70
     0
 71
     0
 10
0.0
 20
0.0
 30
0.0
  3
SEANNOT_GROUP2
  1

  0
LINE
  5
60
330
5E
100
AcDbEntity
  8
Kontur
  6
CENTER2
 62
   136
370
    30
100
AcDbLine
 10
158.3559684693
 20
112.7213129503
 30
0.0
 11
158.3559684693
 21
211.2213129503
 31
0.0
  0
ENDBLK
  5
62
330
5E
100
AcDbEntity
  8
0
100
AcDbBlockEnd
  0
BLOCK
  5
66
330
63
100
AcDbEntity
  8
0
100
AcDbBlockBegin
  2
SEANNOT_GROUP3
 70
     0
 71
     0
 10
0.0
 20
0.0
 30
0.0
  3
SEANNOT_GROUP3
  1

  0
LINE
  5
65
330
63
100
AcDbEntity
  8
Kontur
  6
CENTER2
 62
   136
370
    30
100
AcDbLine
 10
160.1059684693
 20
114.4713129503
 30
0.0
 11
61.6059684693
 21
114.4713129503
 31
0.0
  0
ENDBLK
  5
67
330
63
100
AcDbEntity
  8
0
100
AcDbBlockEnd
  0
BLOCK
  5
16D
330
168
100
AcDbEntity
  8
0
100
AcDbBlockBegin
  2
SEANNOT_GROUP4
 70
     0
 71
     0
 10
0.0
 20
0.0
 30
0.0
  3
SEANNOT_GROUP4
  1

  0
LWPOLYLINE
  5
16A
330
168
100
AcDbEntity
  8
Kontur
  6
Continuous
 62
   136
370
    30
100
AcDbPolyline
 90
        2
 70
     0
 43
0.0
 10
82.2588583913
 20
95.2118313613
 10
62.8987316965
 20
135.9236357953
  0
HATCH
  5
16B
330
168
100
AcDbEntity
  8
Kontur
  6
Continuous
 62
   136
370
    30
100
AcDbHatch
 10
0.0
 20
0.0
 30
0.0
210
0.0
220
0.0
230
1.0
  2
SOLID
 70
     1
 71
     0
 91
        1
 92
        1
 93
        3
 72
     1
 10
64.9286267202295
 20
133.0133428981033
 11
62.89873169648652
 21
135.923635795322
 72
     1
 10
62.89873169648652
 20
135.923635795322
 11
63.8750238874157
 21
132.5123116956579
 72
     1
 10
63.8750238874157
 20
132.5123116956579
 11
64.9286267202295
 21
133.0133428981033
 97
        0
 75
     0
 76
     1
 98
        0
  0
TEXT
  5
16C
330
168
100
AcDbEntity
  8
Kontur
  6
Continuous
 62
   136
370
     0
100
AcDbText
 10
82.9588583913
 20
92.4118313613
 30
0.0
 40
3.5
  1
Drahtstifte
  7
SEACAD_seiso_ttf
 11
82.9588583913
 21
95.9118313613
 31
0.0
100
AcDbText
 73
     3
  0
ENDBLK
  5
16E
330
168
100
AcDbEntity
  8
0
100
AcDbBlockEnd
  0
BLOCK
  5
173
330
16F
100
AcDbEntity
  8
0
100
AcDbBlockBegin
  2
SEANNOT_GROUP5
 70
     0
 71
     0
 10
0.0
 20
0.0
 30
0.0
  3
SEANNOT_GROUP5
  1

  0
LWPOLYLINE
  5
171
330
16F
100
AcDbEntity
  8
Kontur
  6
Continuous
 62
   136
370
    30
100
AcDbPolyline
 90
        2
 70
     0
 43
0.0
 10
82.3647741839
 20
95.2118313613
 10
84.1487316965
 20
114.6736357953
  0
HATCH
  5
172
330
16F
100
AcDbEntity
  8
Kontur
  6
Continuous
 62
   136
370
    30
100
AcDbHatch
 10
0.0
 20
0.0
 30
0.0
210
0.0
220
0.0
230
1.0
  2
SOLID
 70
     1
 71
     0
 91
        1
 92
        1
 93
        3
 72
     1
 10
84.41014317565855
 20
111.1350000986764
 11
84.14873169648645
 21
114.6736357953221
 72
     1
 10
84.14873169648645
 20
114.6736357953221
 11
83.24834719408848
 21
111.2414956025473
 72
     1
 10
83.24834719408848
 20
111.2414956025473
 11
84.41014317565855
 21
111.1350000986764
 97
        0
 75
     0
 76
     1
 98
        0
  0
ENDBLK
  5
174
330
16F
100
AcDbEntity
  8
0
100
AcDbBlockEnd
  0
BLOCK
  5
179
330
175
100
AcDbEntity
  8
0
100
AcDbBlockBegin
  2
SEANNOT_GROUP6
 70
     0
 71
     0
 10
0.0
 20
0.0
 30
0.0
  3
SEANNOT_GROUP6
  1

  0
LWPOLYLINE
  5
177
330
175
100
AcDbEntity
  8
Kontur
  6
Continuous
 62
   136
370
    30
100
AcDbPolyline
 90
        2
 70
     0
 43
0.0
 10
170.948193463
 20
198.9940475629
 10
158.8344795076
 20
188.6998239886
  0
HATCH
  5
178
330
175
100
AcDbEntity
  8
Kontur
  6
Continuous
 62
   136
370
    30
100
AcDbHatch
 10
0.0
 20
0.0
 30
0.0
210
0.0
220
0.0
230
1.0
  2
SOLID
 70
     1
 71
     0
 91
        1
 92
        1
 93
        3
 72
     1
 10
161.1237884668757
 20
191.4107911673439
 11
158.8344795076151
 21
188.6998239886294
 72
     1
 10
158.8344795076151
 20
188.6998239886294
 11
161.8792746351474
 21
190.521773819545
 72
     1
 10
161.8792746351474
 20
190.521773819545
 11
161.1237884668757
 21
191.4107911673439
 97
        0
 75
     0
 76
     1
 98
        0
  0
ENDBLK
  5
17A
330
175
100
AcDbEntity
  8
0
100
AcDbBlockEnd
  0
BLOCK
  5
181
330
17B
100
AcDbEntity
  8
0
100
AcDbBlockBegin
  2
SEANNOT_GROUP7
 70
     0
 71
     0
 10
0.0
 20
0.0
 30
0.0
  3
SEANNOT_GROUP7
  1

  0
LWPOLYLINE
  5
17D
330
17B
100
AcDbEntity
  8
Kontur
  6
Continuous
 62
   136
370
    30
100
AcDbPolyline
 90
        2
 70
     0
 43
0.0
 10
171.0976355362
 20
198.9193265263
 10
139.106969148
 20
209.6843653477
  0
HATCH
  5
17E
330
17B
100
AcDbEntity
  8
Kontur
  6
Continuous
 62
   136
370
    30
100
AcDbHatch
 10
0.0
 20
0.0
 30
0.0
210
0.0
220
0.0
230
1.0
  2
SOLID
 70
     1
 71
     0
 91
        1
 92
        1
 93
        3
 72
     1
 10
142.6102342655719
 20
209.1209719938003
 11
139.1069691480286
 21
209.6843653477032
 72
     1
 10
139.1069691480286
 20
209.6843653477032
 11
142.2381464147092
 21
208.0152315964296
 72
     1
 10
142.2381464147092
 20
208.0152315964296
 11
142.6102342655719
 21
209.1209719938003
 97
        0
 75
     0
 76
     1
 98
        0
  0
TEXT
  5
17F
330
17B
100
AcDbEntity
  8
Kontur
  6
Continuous
 62
   136
370
     0
100
AcDbText
 10
171.7976355362
 20
196.1193265263
 30
0.0
 40
3.5
  1
Holz-
  7
SEACAD_seiso_ttf
 11
171.7976355362
 21
199.6193265263
 31
0.0
100
AcDbText
 73
     3
  0
TEXT
  5
180
330
17B
100
AcDbEntity
  8
Kontur
  6
Continuous
 62
   136
370
     0
100
AcDbText
 10
171.7976355362
 20
191.9193265263
 30
0.0
 40
3.5
  1
Schrauben
  7
SEACAD_seiso_ttf
 11
171.7976355362
 21
195.4193265263
 31
0.0
100
AcDbText
 73
     3
  0
ENDBLK
  5
182
330
17B
100
AcDbEntity
  8
0
100
AcDbBlockEnd
  0
BLOCK
  5
186
330
183
100
AcDbEntity
  8
0
100
AcDbBlockBegin
  2
SEANNOT_GROUP8
 70
     0
 71
     0
 10
0.0
 20
0.0
 30
0.0
  3
SEANNOT_GROUP8
  1

  0
LINE
  5
185
330
183
100
AcDbEntity
  8
Kontur
  6
CENTER2
 62
   136
370
    30
100
AcDbLine
 10
110.8559684693
 20
218.7213129503
 30
0.0
 11
110.8559684693
 21
105.2213129503
 31
0.0
  0
ENDBLK
  5
187
330
183
100
AcDbEntity
  8
0
100
AcDbBlockEnd
  0
BLOCK
  5
18B
330
188
100
AcDbEntity
  8
0
100
AcDbBlockBegin
  2
SEANNOT_GROUP9
 70
     0
 71
     0
 10
0.0
 20
0.0
 30
0.0
  3
SEANNOT_GROUP9
  1

  0
LINE
  5
18A
330
188
100
AcDbEntity
  8
Kontur
  6
CENTER2
 62
   136
370
    30
100
AcDbLine
 10
54.1059684693
 20
161.9713129503
 30
0.0
 11
167.6059684693
 21
161.9713129503
 31
0.0
  0
ENDBLK
  5
18C
330
188
100
AcDbEntity
  8
0
100
AcDbBlockEnd
  0
ENDSEC
  0
SECTION
  2
ENTITIES
  0
TEXT
  5
2B
330
1F
100
AcDbEntity
  8
Kontur
  6
Continuous
 62
     7
100
AcDbText
 10
191.7873888602
 20
11.4649248283
 30
0.0
 40
5.0
  1
4 /4
  7
SEACAD_seiso_ttf
 11
191.7873888602
 21
16.4649248283
 31
0.0
100
AcDbText
 73
     3
  0
TEXT
  5
2D
330
1F
100
AcDbEntity
  8
Kontur
  6
Continuous
 62
     7
100
AcDbText
 10
89.9522362854
 20
23.2442035354
 30
0.0
 40
5.0
  1
1 : 2
  7
SEACAD_seiso_ttf
 11
89.9522362854
 21
28.2442035354
 31
0.0
100
AcDbText
 73
     3
  0
TEXT
  5
2E
330
1F
100
AcDbEntity
  8
Kontur
  6
Continuous
 62
     7
100
AcDbText
 10
124.9192186697
 20
13.4391156874
 30
0.0
 40
4.0
  1
  Lötgitter
  7
SEACAD_seiso_ttf
 11
124.9192186697
 21
17.4391156874
 31
0.0
100
AcDbText
 73
     3
  0
LINE
  5
2F
330
1F
100
AcDbEntity
  8
Kontur
  6
Continuous
 62
     7
100
AcDbLine
 10
55.8559684693
 20
106.9713129503
 30
0.0
 11
165.8559684693
 21
106.9713129503
 31
0.0
  0
LINE
  5
30
330
1F
100
AcDbEntity
  8
Kontur
  6
Continuous
 62
     7
100
AcDbLine
 10
165.8559684693
 20
106.9713129503
 30
0.0
 11
165.8559684693
 21
216.9713129503
 31
0.0
  0
LINE
  5
31
330
1F
100
AcDbEntity
  8
Kontur
  6
Continuous
 62
     7
100
AcDbLine
 10
165.8559684693
 20
216.9713129503
 30
0.0
 11
55.8559684693
 21
216.9713129503
 31
0.0
  0
LINE
  5
32
330
1F
100
AcDbEntity
  8
Kontur
  6
Continuous
 62
     7
100
AcDbLine
 10
55.8559684693
 20
216.9713129503
 30
0.0
 11
55.8559684693
 21
106.9713129503
 31
0.0
  0
LINE
  5
33
330
1F
100
AcDbEntity
  8
Kontur
  6
Continuous
 62
     7
100
AcDbLine
 10
70.8559684693
 20
201.9713129503
 30
0.0
 11
70.8559684693
 21
121.9713129503
 31
0.0
  0
LINE
  5
34
330
1F
100
AcDbEntity
  8
Kontur
  6
Continuous
 62
     7
100
AcDbLine
 10
70.8559684693
 20
121.9713129503
 30
0.0
 11
150.8559684693
 21
121.9713129503
 31
0.0
  0
LINE
  5
35
330
1F
100
AcDbEntity
  8
Kontur
  6
Continuous
 62
     7
100
AcDbLine
 10
150.8559684693
 20
121.9713129503
 30
0.0
 11
150.8559684693
 21
201.9713129503
 31
0.0
  0
LINE
  5
36
330
1F
100
AcDbEntity
  8
Kontur
  6
Continuous
 62
     7
100
AcDbLine
 10
150.8559684693
 20
201.9713129503
 30
0.0
 11
70.8559684693
 21
201.9713129503
 31
0.0
  0
LINE
  5
37
330
1F
100
AcDbEntity
  8
Kontur
  6
Continuous
 62
     7
100
AcDbLine
 10
79.3559684693
 20
193.4713129503
 30
0.0
 11
79.3559684693
 21
130.4713129503
 31
0.0
  0
LINE
  5
38
330
1F
100
AcDbEntity
  8
Kontur
  6
Continuous
 62
     7
100
AcDbLine
 10
70.8559684693
 20
130.4713129503
 30
0.0
 11
150.8559684693
 21
130.4713129503
 31
0.0
  0
LINE
  5
39
330
1F
100
AcDbEntity
  8
Kontur
  6
Continuous
 62
     7
100
AcDbLine
 10
142.3559684693
 20
130.4713129503
 30
0.0
 11
142.3559684693
 21
193.4713129503
 31
0.0
  0
LINE
  5
3A
330
1F
100
AcDbEntity
  8
Kontur
  6
Continuous
 62
     7
100
AcDbLine
 10
150.8559684693
 20
193.4713129503
 30
0.0
 11
70.8559684693
 21
193.4713129503
 31
0.0
  0
CIRCLE
  5
3B
330
1F
100
AcDbEntity
  8
Kontur
  6
Continuous
 62
     7
100
AcDbCircle
 10
74.8559684693
 20
185.9713129503
 30
0.0
 40
2.0
  0
LINE
  5
3C
330
1F
100
AcDbEntity
  8
Kontur
  6
Continuous
 62
     7
100
AcDbLine
 10
76.7474097093
 20
185.3213513857
 30
0.0
 11
73.5156186736
 21
187.4557193722
 31
0.0
  0
LINE
  5
3D
330
1F
100
AcDbEntity
  8
Kontur
  6
Continuous
 62
     7
100
AcDbLine
 10
76.1963182649
 20
184.4869065284
 30
0.0
 11
72.9645272292
 21
186.6212745149
 31
0.0
  0
CIRCLE
  5
3E
330
1F
100
AcDbEntity
  8
Kontur
  6
Continuous
 62
     7
100
AcDbCircle
 10
82.8559684693
 20
197.9713129503
 30
0.0
 40
2.0
  0
LINE
  5
3F
330
1F
100
AcDbEntity
  8
Kontur
  6
Continuous
 62
     7
100
AcDbLine
 10
84.7474097093
 20
197.3213513857
 30
0.0
 11
81.5156186736
 21
199.4557193722
 31
0.0
  0
LINE
  5
40
330
1F
100
AcDbEntity
  8
Kontur
  6
Continuous
 62
     7
100
AcDbLine
 10
84.1963182649
 20
196.4869065284
 30
0.0
 11
80.9645272292
 21
198.6212745149
 31
0.0
  0
CIRCLE
  5
41
330
1F
100
AcDbEntity
  8
Kontur
  6
Continuous
 62
     7
100
AcDbCircle
 10
138.8559684693
 20
197.9713129503
 30
0.0
 40
2.0
  0
LINE
  5
42
330
1F
100
AcDbEntity
  8
Kontur
  6
Continuous
 62
     7
100
AcDbLine
 10
140.7474097093
 20
197.3213513857
 30
0.0
 11
137.5156186736
 21
199.4557193722
 31
0.0
  0
LINE
  5
43
330
1F
100
AcDbEntity
  8
Kontur
  6
Continuous
 62
     7
100
AcDbLine
 10
140.1963182649
 20
196.4869065284
 30
0.0
 11
136.9645272292
 21
198.6212745149
 31
0.0
  0
CIRCLE
  5
44
330
1F
100
AcDbEntity
  8
Kontur
  6
Continuous
 62
     7
100
AcDbCircle
 10
146.8559684693
 20
185.9713129503
 30
0.0
 40
2.0
  0
LINE
  5
45
330
1F
100
AcDbEntity
  8
Kontur
  6
Continuous
 62
     7
100
AcDbLine
 10
148.7474097093
 20
185.3213513857
 30
0.0
 11
145.5156186736
 21
187.4557193722
 31
0.0
  0
LINE
  5
46
330
1F
100
AcDbEntity
  8
Kontur
  6
Continuous
 62
     7
100
AcDbLine
 10
148.1963182649
 20
184.4869065284
 30
0.0
 11
144.9645272292
 21
186.6212745149
 31
0.0
  0
CIRCLE
  5
47
330
1F
100
AcDbEntity
  8
Kontur
  6
Continuous
 62
     7
100
AcDbCircle
 10
146.8559684693
 20
137.9713129503
 30
0.0
 40
2.0
  0
LINE
  5
48
330
1F
100
AcDbEntity
  8
Kontur
  6
Continuous
 62
     7
100
AcDbLine
 10
148.7474097093
 20
137.3213513857
 30
0.0
 11
145.5156186736
 21
139.4557193722
 31
0.0
  0
LINE
  5
49
330
1F
100
AcDbEntity
  8
Kontur
  6
Continuous
 62
     7
100
AcDbLine
 10
148.1963182649
 20
136.4869065284
 30
0.0
 11
144.9645272292
 21
138.6212745149
 31
0.0
  0
CIRCLE
  5
4A
330
1F
100
AcDbEntity
  8
Kontur
  6
Continuous
 62
     7
100
AcDbCircle
 10
138.8559684693
 20
125.9713129503
 30
0.0
 40
2.0
  0
LINE
  5
4B
330
1F
100
AcDbEntity
  8
Kontur
  6
Continuous
 62
     7
100
AcDbLine
 10
140.7474097093
 20
125.3213513857
 30
0.0
 11
137.5156186736
 21
127.4557193722
 31
0.0
  0
LINE
  5
4C
330
1F
100
AcDbEntity
  8
Kontur
  6
Continuous
 62
     7
100
AcDbLine
 10
140.1963182649
 20
124.4869065284
 30
0.0
 11
136.9645272292
 21
126.6212745149
 31
0.0
  0
CIRCLE
  5
4D
330
1F
100
AcDbEntity
  8
Kontur
  6
Continuous
 62
     7
100
AcDbCircle
 10
82.8559684693
 20
125.9713129503
 30
0.0
 40
2.0
  0
LINE
  5
4E
330
1F
100
AcDbEntity
  8
Kontur
  6
Continuous
 62
     7
100
AcDbLine
 10
84.7474097093
 20
125.3213513857
 30
0.0
 11
81.5156186736
 21
127.4557193722
 31
0.0
  0
LINE
  5
4F
330
1F
100
AcDbEntity
  8
Kontur
  6
Continuous
 62
     7
100
AcDbLine
 10
84.1963182649
 20
124.4869065284
 30
0.0
 11
80.9645272292
 21
126.6212745149
 31
0.0
  0
CIRCLE
  5
50
330
1F
100
AcDbEntity
  8
Kontur
  6
Continuous
 62
     7
100
AcDbCircle
 10
74.8559684693
 20
137.9713129503
 30
0.0
 40
2.0
  0
LINE
  5
51
330
1F
100
AcDbEntity
  8
Kontur
  6
Continuous
 62
     7
100
AcDbLine
 10
76.7474097093
 20
137.3213513857
 30
0.0
 11
73.5156186736
 21
139.4557193722
 31
0.0
  0
LINE
  5
52
330
1F
100
AcDbEntity
  8
Kontur
  6
Continuous
 62
     7
100
AcDbLine
 10
76.1963182649
 20
136.4869065284
 30
0.0
 11
72.9645272292
 21
138.6212745149
 31
0.0
  0
INSERT
  5
54
330
1F
100
AcDbEntity
  8
Kontur
100
AcDbBlockReference
  2
SEANNOT_GROUP
 10
0.0
 20
0.0
 30
0.0
  0
INSERT
  5
5A
330
1F
100
AcDbEntity
  8
Kontur
100
AcDbBlockReference
  2
SEANNOT_GROUP1
 10
0.0
 20
0.0
 30
0.0
  0
INSERT
  5
5F
330
1F
100
AcDbEntity
  8
Kontur
100
AcDbBlockReference
  2
SEANNOT_GROUP2
 10
0.0
 20
0.0
 30
0.0
  0
INSERT
  5
64
330
1F
100
AcDbEntity
  8
Kontur
100
AcDbBlockReference
  2
SEANNOT_GROUP3
 10
0.0
 20
0.0
 30
0.0
  0
LINE
  5
68
330
1F
100
AcDbEntity
  8
Kontur
  6
CENTER2
 62
     7
100
AcDbLine
 10
84.6059684693
 20
211.9713129503
 30
0.0
 11
84.6059684693
 21
206.9713129503
 31
0.0
  0
LINE
  5
69
330
1F
100
AcDbEntity
  8
Kontur
  6
CENTER2
 62
     7
100
AcDbLine
 10
92.1059684693
 20
211.9713129503
 30
0.0
 11
92.1059684693
 21
206.9713129503
 31
0.0
  0
LINE
  5
6A
330
1F
100
AcDbEntity
  8
Kontur
  6
CENTER2
 62
     7
100
AcDbLine
 10
99.6059684693
 20
211.9713129503
 30
0.0
 11
99.6059684693
 21
206.9713129503
 31
0.0
  0
LINE
  5
6B
330
1F
100
AcDbEntity
  8
Kontur
  6
CENTER2
 62
     7
100
AcDbLine
 10
107.1059684693
 20
211.9713129503
 30
0.0
 11
107.1059684693
 21
206.9713129503
 31
0.0
  0
LINE
  5
6C
330
1F
100
AcDbEntity
  8
Kontur
  6
CENTER2
 62
     7
100
AcDbLine
 10
114.6059684693
 20
211.9713129503
 30
0.0
 11
114.6059684693
 21
206.9713129503
 31
0.0
  0
LINE
  5
6D
330
1F
100
AcDbEntity
  8
Kontur
  6
CENTER2
 62
     7
100
AcDbLine
 10
122.1059684693
 20
211.9713129503
 30
0.0
 11
122.1059684693
 21
206.9713129503
 31
0.0
  0
LINE
  5
6E
330
1F
100
AcDbEntity
  8
Kontur
  6
CENTER2
 62
     7
100
AcDbLine
 10
129.6059684693
 20
211.9713129503
 30
0.0
 11
129.6059684693
 21
206.9713129503
 31
0.0
  0
LINE
  5
6F
330
1F
100
AcDbEntity
  8
Kontur
  6
CENTER2
 62
     7
100
AcDbLine
 10
137.1059684693
 20
211.9713129503
 30
0.0
 11
137.1059684693
 21
206.9713129503
 31
0.0
  0
LINE
  5
70
330
1F
100
AcDbEntity
  8
Kontur
  6
CENTER2
 62
     7
100
AcDbLine
 10
160.8559684693
 20
135.7213129503
 30
0.0
 11
155.8559684693
 21
135.7213129503
 31
0.0
  0
LINE
  5
71
330
1F
100
AcDbEntity
  8
Kontur
  6
CENTER2
 62
     7
100
AcDbLine
 10
160.8559684693
 20
143.2213129503
 30
0.0
 11
155.8559684693
 21
143.2213129503
 31
0.0
  0
LINE
  5
72
330
1F
100
AcDbEntity
  8
Kontur
  6
CENTER2
 62
     7
100
AcDbLine
 10
160.8559684693
 20
150.7213129503
 30
0.0
 11
155.8559684693
 21
150.7213129503
 31
0.0
  0
LINE
  5
73
330
1F
100
AcDbEntity
  8
Kontur
  6
CENTER2
 62
     7
100
AcDbLine
 10
160.8559684693
 20
158.2213129503
 30
0.0
 11
155.8559684693
 21
158.2213129503
 31
0.0
  0
LINE
  5
74
330
1F
100
AcDbEntity
  8
Kontur
  6
CENTER2
 62
     7
100
AcDbLine
 10
160.8559684693
 20
165.7213129503
 30
0.0
 11
155.8559684693
 21
165.7213129503
 31
0.0
  0
LINE
  5
75
330
1F
100
AcDbEntity
  8
Kontur
  6
CENTER2
 62
     7
100
AcDbLine
 10
160.8559684693
 20
173.2213129503
 30
0.0
 11
155.8559684693
 21
173.2213129503
 31
0.0
  0
LINE
  5
76
330
1F
100
AcDbEntity
  8
Kontur
  6
CENTER2
 62
     7
100
AcDbLine
 10
160.8559684693
 20
180.7213129503
 30
0.0
 11
155.8559684693
 21
180.7213129503
 31
0.0
  0
LINE
  5
77
330
1F
100
AcDbEntity
  8
Kontur
  6
CENTER2
 62
     7
100
AcDbLine
 10
160.8559684693
 20
188.2213129503
 30
0.0
 11
155.8559684693
 21
188.2213129503
 31
0.0
  0
LINE
  5
78
330
1F
100
AcDbEntity
  8
Kontur
  6
CENTER2
 62
     7
100
AcDbLine
 10
137.1059684693
 20
111.9713129503
 30
0.0
 11
137.1059684693
 21
116.9713129503
 31
0.0
  0
LINE
  5
79
330
1F
100
AcDbEntity
  8
Kontur
  6
CENTER2
 62
     7
100
AcDbLine
 10
129.6059684693
 20
111.9713129503
 30
0.0
 11
129.6059684693
 21
116.9713129503
 31
0.0
  0
LINE
  5
7A
330
1F
100
AcDbEntity
  8
Kontur
  6
CENTER2
 62
     7
100
AcDbLine
 10
122.1059684693
 20
111.9713129503
 30
0.0
 11
122.1059684693
 21
116.9713129503
 31
0.0
  0
LINE
  5
7B
330
1F
100
AcDbEntity
  8
Kontur
  6
CENTER2
 62
     7
100
AcDbLine
 10
114.6059684693
 20
111.9713129503
 30
0.0
 11
114.6059684693
 21
116.9713129503
 31
0.0
  0
LINE
  5
7C
330
1F
100
AcDbEntity
  8
Kontur
  6
CENTER2
 62
     7
100
AcDbLine
 10
107.1059684693
 20
111.9713129503
 30
0.0
 11
107.1059684693
 21
116.9713129503
 31
0.0
  0
LINE
  5
7D
330
1F
100
AcDbEntity
  8
Kontur
  6
CENTER2
 62
     7
100
AcDbLine
 10
99.6059684693
 20
111.9713129503
 30
0.0
 11
99.6059684693
 21
116.9713129503
 31
0.0
  0
LINE
  5
7E
330
1F
100
AcDbEntity
  8
Kontur
  6
CENTER2
 62
     7
100
AcDbLine
 10
92.1059684693
 20
111.9713129503
 30
0.0
 11
92.1059684693
 21
116.9713129503
 31
0.0
  0
LINE
  5
7F
330
1F
100
AcDbEntity
  8
Kontur
  6
CENTER2
 62
     7
100
AcDbLine
 10
84.6059684693
 20
111.9713129503
 30
0.0
 11
84.6059684693
 21
116.9713129503
 31
0.0
  0
LINE
  5
80
330
1F
100
AcDbEntity
  8
Kontur
  6
CENTER2
 62
     7
100
AcDbLine
 10
60.8559684693
 20
188.2213129503
 30
0.0
 11
65.8559684693
 21
188.2213129503
 31
0.0
  0
LINE
  5
81
330
1F
100
AcDbEntity
  8
Kontur
  6
CENTER2
 62
     7
100
AcDbLine
 10
60.8559684693
 20
180.7213129503
 30
0.0
 11
65.8559684693
 21
180.7213129503
 31
0.0
  0
LINE
  5
82
330
1F
100
AcDbEntity
  8
Kontur
  6
CENTER2
 62
     7
100
AcDbLine
 10
60.8559684693
 20
173.2213129503
 30
0.0
 11
65.8559684693
 21
173.2213129503
 31
0.0
  0
LINE
  5
83
330
1F
100
AcDbEntity
  8
Kontur
  6
CENTER2
 62
     7
100
AcDbLine
 10
60.8559684693
 20
165.7213129503
 30
0.0
 11
65.8559684693
 21
165.7213129503
 31
0.0
  0
LINE
  5
84
330
1F
100
AcDbEntity
  8
Kontur
  6
CENTER2
 62
     7
100
AcDbLine
 10
60.8559684693
 20
158.2213129503
 30
0.0
 11
65.8559684693
 21
158.2213129503
 31
0.0
  0
LINE
  5
85
330
1F
100
AcDbEntity
  8
Kontur
  6
CENTER2
 62
     7
100
AcDbLine
 10
60.8559684693
 20
150.7213129503
 30
0.0
 11
65.8559684693
 21
150.7213129503
 31
0.0
  0
LINE
  5
86
330
1F
100
AcDbEntity
  8
Kontur
  6
CENTER2
 62
     7
100
AcDbLine
 10
60.8559684693
 20
143.2213129503
 30
0.0
 11
65.8559684693
 21
143.2213129503
 31
0.0
  0
LINE
  5
87
330
1F
100
AcDbEntity
  8
Kontur
  6
CENTER2
 62
     7
100
AcDbLine
 10
60.8559684693
 20
135.7213129503
 30
0.0
 11
65.8559684693
 21
135.7213129503
 31
0.0
  0
CIRCLE
  5
88
330
1F
100
AcDbEntity
  8
Kontur
  6
Continuous
 62
     7
100
AcDbCircle
 10
63.3559684693
 20
188.2213129503
 30
0.0
 40
1.5
  0
CIRCLE
  5
89
330
1F
100
AcDbEntity
  8
Kontur
  6
Continuous
 62
     7
100
AcDbCircle
 10
63.3559684693
 20
180.7213129503
 30
0.0
 40
1.5
  0
CIRCLE
  5
8A
330
1F
100
AcDbEntity
  8
Kontur
  6
Continuous
 62
     7
100
AcDbCircle
 10
63.3559684693
 20
173.2213129503
 30
0.0
 40
1.5
  0
CIRCLE
  5
8B
330
1F
100
AcDbEntity
  8
Kontur
  6
Continuous
 62
     7
100
AcDbCircle
 10
63.3559684693
 20
165.7213129503
 30
0.0
 40
1.5
  0
CIRCLE
  5
8C
330
1F
100
AcDbEntity
  8
Kontur
  6
Continuous
 62
     7
100
AcDbCircle
 10
63.3559684693
 20
158.2213129503
 30
0.0
 40
1.5
  0
CIRCLE
  5
8D
330
1F
100
AcDbEntity
  8
Kontur
  6
Continuous
 62
     7
100
AcDbCircle
 10
63.3559684693
 20
150.7213129503
 30
0.0
 40
1.5
  0
CIRCLE
  5
8E
330
1F
100
AcDbEntity
  8
Kontur
  6
Continuous
 62
     7
100
AcDbCircle
 10
63.3559684693
 20
143.2213129503
 30
0.0
 40
1.5
  0
CIRCLE
  5
8F
330
1F
100
AcDbEntity
  8
Kontur
  6
Continuous
 62
     7
100
AcDbCircle
 10
63.3559684693
 20
135.7213129503
 30
0.0
 40
1.5
  0
CIRCLE
  5
90
330
1F
100
AcDbEntity
  8
Kontur
  6
Continuous
 62
     7
100
AcDbCircle
 10
137.1059684693
 20
114.4713129503
 30
0.0
 40
1.5
  0
CIRCLE
  5
91
330
1F
100
AcDbEntity
  8
Kontur
  6
Continuous
 62
     7
100
AcDbCircle
 10
129.6059684693
 20
114.4713129503
 30
0.0
 40
1.5
  0
CIRCLE
  5
92
330
1F
100
AcDbEntity
  8
Kontur
  6
Continuous
 62
     7
100
AcDbCircle
 10
122.1059684693
 20
114.4713129503
 30
0.0
 40
1.5
  0
CIRCLE
  5
93
330
1F
100
AcDbEntity
  8
Kontur
  6
Continuous
 62
     7
100
AcDbCircle
 10
114.6059684693
 20
114.4713129503
 30
0.0
 40
1.5
  0
CIRCLE
  5
94
330
1F
100
AcDbEntity
  8
Kontur
  6
Continuous
 62
     7
100
AcDbCircle
 10
107.1059684693
 20
114.4713129503
 30
0.0
 40
1.5
  0
CIRCLE
  5
95
330
1F
100
AcDbEntity
  8
Kontur
  6
Continuous
 62
     7
100
AcDbCircle
 10
99.6059684693
 20
114.4713129503
 30
0.0
 40
1.5
  0
CIRCLE
  5
96
330
1F
100
AcDbEntity
  8
Kontur
  6
Continuous
 62
     7
100
AcDbCircle
 10
92.1059684693
 20
114.4713129503
 30
0.0
 40
1.5
  0
CIRCLE
  5
97
330
1F
100
AcDbEntity
  8
Kontur
  6
Continuous
 62
     7
100
AcDbCircle
 10
84.6059684693
 20
114.4713129503
 30
0.0
 40
1.5
  0
CIRCLE
  5
98
330
1F
100
AcDbEntity
  8
Kontur
  6
Continuous
 62
     7
100
AcDbCircle
 10
84.6059684693
 20
209.4713129503
 30
0.0
 40
2.5
  0
LINE
  5
99
330
1F
100
AcDbEntity
  8
Kontur
  6
Continuous
 62
     7
100
AcDbLine
 10
84.3929160718
 20
211.472313629
 30
0.0
 11
84.1274574309
 21
209.9498239886
 31
0.0
  0
LINE
  5
9A
330
1F
100
AcDbEntity
  8
Kontur
  6
Continuous
 62
     7
100
AcDbLine
 10
84.8190208667
 20
211.472313629
 30
0.0
 11
85.0844795076
 21
209.9498239886
 31
0.0
  0
LINE
  5
9B
330
1F
100
AcDbEntity
  8
Kontur
  6
Continuous
 62
     7
100
AcDbLine
 10
82.6049677905
 20
209.2582605528
 30
0.0
 11
84.1274574309
 21
208.9928019119
 31
0.0
  0
LINE
  5
9C
330
1F
100
AcDbEntity
  8
Kontur
  6
Continuous
 62
     7
100
AcDbLine
 10
82.6049677905
 20
209.6843653477
 30
0.0
 11
84.1274574309
 21
209.9498239886
 31
0.0
  0
LINE
  5
9D
330
1F
100
AcDbEntity
  8
Kontur
  6
Continuous
 62
     7
100
AcDbLine
 10
84.8190208667
 20
207.4703122715
 30
0.0
 11
85.0844795076
 21
208.9928019119
 31
0.0
  0
LINE
  5
9E
330
1F
100
AcDbEntity
  8
Kontur
  6
Continuous
 62
     7
100
AcDbLine
 10
84.3929160718
 20
207.4703122715
 30
0.0
 11
84.1274574309
 21
208.9928019119
 31
0.0
  0
LINE
  5
9F
330
1F
100
AcDbEntity
  8
Kontur
  6
Continuous
 62
     7
100
AcDbLine
 10
86.606969148
 20
209.6843653477
 30
0.0
 11
85.0844795076
 21
209.9498239886
 31
0.0
  0
LINE
  5
A0
330
1F
100
AcDbEntity
  8
Kontur
  6
Continuous
 62
     7
100
AcDbLine
 10
86.606969148
 20
209.2582605528
 30
0.0
 11
85.0844795076
 21
208.9928019119
 31
0.0
  0
ARC
  5
A1
330
1F
100
AcDbEntity
  8
Kontur
  6
Continuous
 62
     7
100
AcDbCircle
 10
84.6059684693
 20
209.4713129503
 30
0.0
 40
2.012310870745979
100
AcDbArc
 50
83.9224477072
 51
96.0775522928
  0
ARC
  5
A2
330
1F
100
AcDbEntity
  8
Kontur
  6
Continuous
 62
     7
100
AcDbCircle
 10
84.6059684693
 20
209.4713129503
 30
0.0
 40
2.012310870745979
100
AcDbArc
 50
353.9224477072
 51
6.0775522928
  0
ARC
  5
A3
330
1F
100
AcDbEntity
  8
Kontur
  6
Continuous
 62
     7
100
AcDbCircle
 10
84.6059684693
 20
209.4713129503
 30
0.0
 40
2.012310870745979
100
AcDbArc
 50
173.9224477072
 51
186.0775522928
  0
ARC
  5
A4
330
1F
100
AcDbEntity
  8
Kontur
  6
Continuous
 62
     7
100
AcDbCircle
 10
84.6059684693
 20
209.4713129503
 30
0.0
 40
2.012310870745979
100
AcDbArc
 50
263.9224477072
 51
276.0775522928
  0
CIRCLE
  5
A5
330
1F
100
AcDbEntity
  8
Kontur
  6
Continuous
 62
     7
100
AcDbCircle
 10
92.1059684693
 20
209.4713129503
 30
0.0
 40
2.5
  0
LINE
  5
A6
330
1F
100
AcDbEntity
  8
Kontur
  6
Continuous
 62
     7
100
AcDbLine
 10
91.8929160718
 20
211.472313629
 30
0.0
 11
91.6274574309
 21
209.9498239886
 31
0.0
  0
LINE
  5
A7
330
1F
100
AcDbEntity
  8
Kontur
  6
Continuous
 62
     7
100
AcDbLine
 10
92.3190208667
 20
211.472313629
 30
0.0
 11
92.5844795076
 21
209.9498239886
 31
0.0
  0
LINE
  5
A8
330
1F
100
AcDbEntity
  8
Kontur
  6
Continuous
 62
     7
100
AcDbLine
 10
90.1049677905
 20
209.2582605528
 30
0.0
 11
91.6274574309
 21
208.9928019119
 31
0.0
  0
LINE
  5
A9
330
1F
100
AcDbEntity
  8
Kontur
  6
Continuous
 62
     7
100
AcDbLine
 10
90.1049677905
 20
209.6843653477
 30
0.0
 11
91.6274574309
 21
209.9498239886
 31
0.0
  0
LINE
  5
AA
330
1F
100
AcDbEntity
  8
Kontur
  6
Continuous
 62
     7
100
AcDbLine
 10
92.3190208667
 20
207.4703122715
 30
0.0
 11
92.5844795076
 21
208.9928019119
 31
0.0
  0
LINE
  5
AB
330
1F
100
AcDbEntity
  8
Kontur
  6
Continuous
 62
     7
100
AcDbLine
 10
91.8929160718
 20
207.4703122715
 30
0.0
 11
91.6274574309
 21
208.9928019119
 31
0.0
  0
LINE
  5
AC
330
1F
100
AcDbEntity
  8
Kontur
  6
Continuous
 62
     7
100
AcDbLine
 10
94.106969148
 20
209.6843653477
 30
0.0
 11
92.5844795076
 21
209.9498239886
 31
0.0
  0
LINE
  5
AD
330
1F
100
AcDbEntity
  8
Kontur
  6
Continuous
 62
     7
100
AcDbLine
 10
94.106969148
 20
209.2582605528
 30
0.0
 11
92.5844795076
 21
208.9928019119
 31
0.0
  0
ARC
  5
AE
330
1F
100
AcDbEntity
  8
Kontur
  6
Continuous
 62
     7
100
AcDbCircle
 10
92.1059684693
 20
209.4713129503
 30
0.0
 40
2.012310870745979
100
AcDbArc
 50
83.9224477072
 51
96.0775522928
  0
ARC
  5
AF
330
1F
100
AcDbEntity
  8
Kontur
  6
Continuous
 62
     7
100
AcDbCircle
 10
92.1059684693
 20
209.4713129503
 30
0.0
 40
2.012310870745979
100
AcDbArc
 50
353.9224477072
 51
6.0775522928
  0
ARC
  5
B0
330
1F
100
AcDbEntity
  8
Kontur
  6
Continuous
 62
     7
100
AcDbCircle
 10
92.1059684693
 20
209.4713129503
 30
0.0
 40
2.012310870745979
100
AcDbArc
 50
173.9224477072
 51
186.0775522928
  0
ARC
  5
B1
330
1F
100
AcDbEntity
  8
Kontur
  6
Continuous
 62
     7
100
AcDbCircle
 10
92.1059684693
 20
209.4713129503
 30
0.0
 40
2.012310870745979
100
AcDbArc
 50
263.9224477072
 51
276.0775522928
  0
CIRCLE
  5
B2
330
1F
100
AcDbEntity
  8
Kontur
  6
Continuous
 62
     7
100
AcDbCircle
 10
99.6059684693
 20
209.4713129503
 30
0.0
 40
2.5
  0
LINE
  5
B3
330
1F
100
AcDbEntity
  8
Kontur
  6
Continuous
 62
     7
100
AcDbLine
 10
99.3929160718
 20
211.472313629
 30
0.0
 11
99.1274574309
 21
209.9498239886
 31
0.0
  0
LINE
  5
B4
330
1F
100
AcDbEntity
  8
Kontur
  6
Continuous
 62
     7
100
AcDbLine
 10
99.8190208667
 20
211.472313629
 30
0.0
 11
100.0844795076
 21
209.9498239886
 31
0.0
  0
LINE
  5
B5
330
1F
100
AcDbEntity
  8
Kontur
  6
Continuous
 62
     7
100
AcDbLine
 10
97.6049677905
 20
209.2582605528
 30
0.0
 11
99.1274574309
 21
208.9928019119
 31
0.0
  0
LINE
  5
B6
330
1F
100
AcDbEntity
  8
Kontur
  6
Continuous
 62
     7
100
AcDbLine
 10
97.6049677905
 20
209.6843653477
 30
0.0
 11
99.1274574309
 21
209.9498239886
 31
0.0
  0
LINE
  5
B7
330
1F
100
AcDbEntity
  8
Kontur
  6
Continuous
 62
     7
100
AcDbLine
 10
99.8190208667
 20
207.4703122715
 30
0.0
 11
100.0844795076
 21
208.9928019119
 31
0.0
  0
LINE
  5
B8
330
1F
100
AcDbEntity
  8
Kontur
  6
Continuous
 62
     7
100
AcDbLine
 10
99.3929160718
 20
207.4703122715
 30
0.0
 11
99.1274574309
 21
208.9928019119
 31
0.0
  0
LINE
  5
B9
330
1F
100
AcDbEntity
  8
Kontur
  6
Continuous
 62
     7
100
AcDbLine
 10
101.606969148
 20
209.6843653477
 30
0.0
 11
100.0844795076
 21
209.9498239886
 31
0.0
  0
LINE
  5
BA
330
1F
100
AcDbEntity
  8
Kontur
  6
Continuous
 62
     7
100
AcDbLine
 10
101.606969148
 20
209.2582605528
 30
0.0
 11
100.0844795076
 21
208.9928019119
 31
0.0
  0
ARC
  5
BB
330
1F
100
AcDbEntity
  8
Kontur
  6
Continuous
 62
     7
100
AcDbCircle
 10
99.6059684693
 20
209.4713129503
 30
0.0
 40
2.012310870745979
100
AcDbArc
 50
83.9224477072
 51
96.0775522928
  0
ARC
  5
BC
330
1F
100
AcDbEntity
  8
Kontur
  6
Continuous
 62
     7
100
AcDbCircle
 10
99.6059684693
 20
209.4713129503
 30
0.0
 40
2.012310870745979
100
AcDbArc
 50
353.9224477072
 51
6.0775522928
  0
ARC
  5
BD
330
1F
100
AcDbEntity
  8
Kontur
  6
Continuous
 62
     7
100
AcDbCircle
 10
99.6059684693
 20
209.4713129503
 30
0.0
 40
2.012310870745979
100
AcDbArc
 50
173.9224477072
 51
186.0775522928
  0
ARC
  5
BE
330
1F
100
AcDbEntity
  8
Kontur
  6
Continuous
 62
     7
100
AcDbCircle
 10
99.6059684693
 20
209.4713129503
 30
0.0
 40
2.012310870745979
100
AcDbArc
 50
263.9224477072
 51
276.0775522928
  0
CIRCLE
  5
BF
330
1F
100
AcDbEntity
  8
Kontur
  6
Continuous
 62
     7
100
AcDbCircle
 10
107.1059684693
 20
209.4713129503
 30
0.0
 40
2.5
  0
LINE
  5
C0
330
1F
100
AcDbEntity
  8
Kontur
  6
Continuous
 62
     7
100
AcDbLine
 10
106.8929160718
 20
211.472313629
 30
0.0
 11
106.6274574309
 21
209.9498239886
 31
0.0
  0
LINE
  5
C1
330
1F
100
AcDbEntity
  8
Kontur
  6
Continuous
 62
     7
100
AcDbLine
 10
107.3190208667
 20
211.472313629
 30
0.0
 11
107.5844795076
 21
209.9498239886
 31
0.0
  0
LINE
  5
C2
330
1F
100
AcDbEntity
  8
Kontur
  6
Continuous
 62
     7
100
AcDbLine
 10
105.1049677905
 20
209.2582605528
 30
0.0
 11
106.6274574309
 21
208.9928019119
 31
0.0
  0
LINE
  5
C3
330
1F
100
AcDbEntity
  8
Kontur
  6
Continuous
 62
     7
100
AcDbLine
 10
105.1049677905
 20
209.6843653477
 30
0.0
 11
106.6274574309
 21
209.9498239886
 31
0.0
  0
LINE
  5
C4
330
1F
100
AcDbEntity
  8
Kontur
  6
Continuous
 62
     7
100
AcDbLine
 10
107.3190208667
 20
207.4703122715
 30
0.0
 11
107.5844795076
 21
208.9928019119
 31
0.0
  0
LINE
  5
C5
330
1F
100
AcDbEntity
  8
Kontur
  6
Continuous
 62
     7
100
AcDbLine
 10
106.8929160718
 20
207.4703122715
 30
0.0
 11
106.6274574309
 21
208.9928019119
 31
0.0
  0
LINE
  5
C6
330
1F
100
AcDbEntity
  8
Kontur
  6
Continuous
 62
     7
100
AcDbLine
 10
109.106969148
 20
209.6843653477
 30
0.0
 11
107.5844795076
 21
209.9498239886
 31
0.0
  0
LINE
  5
C7
330
1F
100
AcDbEntity
  8
Kontur
  6
Continuous
 62
     7
100
AcDbLine
 10
109.106969148
 20
209.2582605528
 30
0.0
 11
107.5844795076
 21
208.9928019119
 31
0.0
  0
ARC
  5
C8
330
1F
100
AcDbEntity
  8
Kontur
  6
Continuous
 62
     7
100
AcDbCircle
 10
107.1059684693
 20
209.4713129503
 30
0.0
 40
2.012310870745979
100
AcDbArc
 50
83.9224477072
 51
96.0775522928
  0
ARC
  5
C9
330
1F
100
AcDbEntity
  8
Kontur
  6
Continuous
 62
     7
100
AcDbCircle
 10
107.1059684693
 20
209.4713129503
 30
0.0
 40
2.012310870745979
100
AcDbArc
 50
353.9224477072
 51
6.0775522928
  0
ARC
  5
CA
330
1F
100
AcDbEntity
  8
Kontur
  6
Continuous
 62
     7
100
AcDbCircle
 10
107.1059684693
 20
209.4713129503
 30
0.0
 40
2.012310870745979
100
AcDbArc
 50
173.9224477072
 51
186.0775522928
  0
ARC
  5
CB
330
1F
100
AcDbEntity
  8
Kontur
  6
Continuous
 62
     7
100
AcDbCircle
 10
107.1059684693
 20
209.4713129503
 30
0.0
 40
2.012310870745979
100
AcDbArc
 50
263.9224477072
 51
276.0775522928
  0
CIRCLE
  5
CC
330
1F
100
AcDbEntity
  8
Kontur
  6
Continuous
 62
     7
100
AcDbCircle
 10
114.6059684693
 20
209.4713129503
 30
0.0
 40
2.5
  0
LINE
  5
CD
330
1F
100
AcDbEntity
  8
Kontur
  6
Continuous
 62
     7
100
AcDbLine
 10
114.3929160718
 20
211.472313629
 30
0.0
 11
114.1274574309
 21
209.9498239886
 31
0.0
  0
LINE
  5
CE
330
1F
100
AcDbEntity
  8
Kontur
  6
Continuous
 62
     7
100
AcDbLine
 10
114.8190208667
 20
211.472313629
 30
0.0
 11
115.0844795076
 21
209.9498239886
 31
0.0
  0
LINE
  5
CF
330
1F
100
AcDbEntity
  8
Kontur
  6
Continuous
 62
     7
100
AcDbLine
 10
112.6049677905
 20
209.2582605528
 30
0.0
 11
114.1274574309
 21
208.9928019119
 31
0.0
  0
LINE
  5
D0
330
1F
100
AcDbEntity
  8
Kontur
  6
Continuous
 62
     7
100
AcDbLine
 10
112.6049677905
 20
209.6843653477
 30
0.0
 11
114.1274574309
 21
209.9498239886
 31
0.0
  0
LINE
  5
D1
330
1F
100
AcDbEntity
  8
Kontur
  6
Continuous
 62
     7
100
AcDbLine
 10
114.8190208667
 20
207.4703122715
 30
0.0
 11
115.0844795076
 21
208.9928019119
 31
0.0
  0
LINE
  5
D2
330
1F
100
AcDbEntity
  8
Kontur
  6
Continuous
 62
     7
100
AcDbLine
 10
114.3929160718
 20
207.4703122715
 30
0.0
 11
114.1274574309
 21
208.9928019119
 31
0.0
  0
LINE
  5
D3
330
1F
100
AcDbEntity
  8
Kontur
  6
Continuous
 62
     7
100
AcDbLine
 10
116.606969148
 20
209.6843653477
 30
0.0
 11
115.0844795076
 21
209.9498239886
 31
0.0
  0
LINE
  5
D4
330
1F
100
AcDbEntity
  8
Kontur
  6
Continuous
 62
     7
100
AcDbLine
 10
116.606969148
 20
209.2582605528
 30
0.0
 11
115.0844795076
 21
208.9928019119
 31
0.0
  0
ARC
  5
D5
330
1F
100
AcDbEntity
  8
Kontur
  6
Continuous
 62
     7
100
AcDbCircle
 10
114.6059684693
 20
209.4713129503
 30
0.0
 40
2.012310870745979
100
AcDbArc
 50
83.9224477072
 51
96.0775522928
  0
ARC
  5
D6
330
1F
100
AcDbEntity
  8
Kontur
  6
Continuous
 62
     7
100
AcDbCircle
 10
114.6059684693
 20
209.4713129503
 30
0.0
 40
2.012310870745979
100
AcDbArc
 50
353.9224477072
 51
6.0775522928
  0
ARC
  5
D7
330
1F
100
AcDbEntity
  8
Kontur
  6
Continuous
 62
     7
100
AcDbCircle
 10
114.6059684693
 20
209.4713129503
 30
0.0
 40
2.012310870745979
100
AcDbArc
 50
173.9224477072
 51
186.0775522928
  0
ARC
  5
D8
330
1F
100
AcDbEntity
  8
Kontur
  6
Continuous
 62
     7
100
AcDbCircle
 10
114.6059684693
 20
209.4713129503
 30
0.0
 40
2.012310870745979
100
AcDbArc
 50
263.9224477072
 51
276.0775522928
  0
CIRCLE
  5
D9
330
1F
100
AcDbEntity
  8
Kontur
  6
Continuous
 62
     7
100
AcDbCircle
 10
122.1059684693
 20
209.4713129503
 30
0.0
 40
2.5
  0
LINE
  5
DA
330
1F
100
AcDbEntity
  8
Kontur
  6
Continuous
 62
     7
100
AcDbLine
 10
121.8929160718
 20
211.472313629
 30
0.0
 11
121.6274574309
 21
209.9498239886
 31
0.0
  0
LINE
  5
DB
330
1F
100
AcDbEntity
  8
Kontur
  6
Continuous
 62
     7
100
AcDbLine
 10
122.3190208667
 20
211.472313629
 30
0.0
 11
122.5844795076
 21
209.9498239886
 31
0.0
  0
LINE
  5
DC
330
1F
100
AcDbEntity
  8
Kontur
  6
Continuous
 62
     7
100
AcDbLine
 10
120.1049677905
 20
209.2582605528
 30
0.0
 11
121.6274574309
 21
208.9928019119
 31
0.0
  0
LINE
  5
DD
330
1F
100
AcDbEntity
  8
Kontur
  6
Continuous
 62
     7
100
AcDbLine
 10
120.1049677905
 20
209.6843653477
 30
0.0
 11
121.6274574309
 21
209.9498239886
 31
0.0
  0
LINE
  5
DE
330
1F
100
AcDbEntity
  8
Kontur
  6
Continuous
 62
     7
100
AcDbLine
 10
122.3190208667
 20
207.4703122715
 30
0.0
 11
122.5844795076
 21
208.9928019119
 31
0.0
  0
LINE
  5
DF
330
1F
100
AcDbEntity
  8
Kontur
  6
Continuous
 62
     7
100
AcDbLine
 10
121.8929160718
 20
207.4703122715
 30
0.0
 11
121.6274574309
 21
208.9928019119
 31
0.0
  0
LINE
  5
E0
330
1F
100
AcDbEntity
  8
Kontur
  6
Continuous
 62
     7
100
AcDbLine
 10
124.106969148
 20
209.6843653477
 30
0.0
 11
122.5844795076
 21
209.9498239886
 31
0.0
  0
LINE
  5
E1
330
1F
100
AcDbEntity
  8
Kontur
  6
Continuous
 62
     7
100
AcDbLine
 10
124.106969148
 20
209.2582605528
 30
0.0
 11
122.5844795076
 21
208.9928019119
 31
0.0
  0
ARC
  5
E2
330
1F
100
AcDbEntity
  8
Kontur
  6
Continuous
 62
     7
100
AcDbCircle
 10
122.1059684693
 20
209.4713129503
 30
0.0
 40
2.012310870745979
100
AcDbArc
 50
83.9224477072
 51
96.0775522928
  0
ARC
  5
E3
330
1F
100
AcDbEntity
  8
Kontur
  6
Continuous
 62
     7
100
AcDbCircle
 10
122.1059684693
 20
209.4713129503
 30
0.0
 40
2.012310870745979
100
AcDbArc
 50
353.9224477072
 51
6.0775522928
  0
ARC
  5
E4
330
1F
100
AcDbEntity
  8
Kontur
  6
Continuous
 62
     7
100
AcDbCircle
 10
122.1059684693
 20
209.4713129503
 30
0.0
 40
2.012310870745979
100
AcDbArc
 50
173.9224477072
 51
186.0775522928
  0
ARC
  5
E5
330
1F
100
AcDbEntity
  8
Kontur
  6
Continuous
 62
     7
100
AcDbCircle
 10
122.1059684693
 20
209.4713129503
 30
0.0
 40
2.012310870745979
100
AcDbArc
 50
263.9224477072
 51
276.0775522928
  0
CIRCLE
  5
E6
330
1F
100
AcDbEntity
  8
Kontur
  6
Continuous
 62
     7
100
AcDbCircle
 10
129.6059684693
 20
209.4713129503
 30
0.0
 40
2.5
  0
LINE
  5
E7
330
1F
100
AcDbEntity
  8
Kontur
  6
Continuous
 62
     7
100
AcDbLine
 10
129.3929160718
 20
211.472313629
 30
0.0
 11
129.1274574309
 21
209.9498239886
 31
0.0
  0
LINE
  5
E8
330
1F
100
AcDbEntity
  8
Kontur
  6
Continuous
 62
     7
100
AcDbLine
 10
129.8190208667
 20
211.472313629
 30
0.0
 11
130.0844795076
 21
209.9498239886
 31
0.0
  0
LINE
  5
E9
330
1F
100
AcDbEntity
  8
Kontur
  6
Continuous
 62
     7
100
AcDbLine
 10
127.6049677905
 20
209.2582605528
 30
0.0
 11
129.1274574309
 21
208.9928019119
 31
0.0
  0
LINE
  5
EA
330
1F
100
AcDbEntity
  8
Kontur
  6
Continuous
 62
     7
100
AcDbLine
 10
127.6049677905
 20
209.6843653477
 30
0.0
 11
129.1274574309
 21
209.9498239886
 31
0.0
  0
LINE
  5
EB
330
1F
100
AcDbEntity
  8
Kontur
  6
Continuous
 62
     7
100
AcDbLine
 10
129.8190208667
 20
207.4703122715
 30
0.0
 11
130.0844795076
 21
208.9928019119
 31
0.0
  0
LINE
  5
EC
330
1F
100
AcDbEntity
  8
Kontur
  6
Continuous
 62
     7
100
AcDbLine
 10
129.3929160718
 20
207.4703122715
 30
0.0
 11
129.1274574309
 21
208.9928019119
 31
0.0
  0
LINE
  5
ED
330
1F
100
AcDbEntity
  8
Kontur
  6
Continuous
 62
     7
100
AcDbLine
 10
131.606969148
 20
209.6843653477
 30
0.0
 11
130.0844795076
 21
209.9498239886
 31
0.0
  0
LINE
  5
EE
330
1F
100
AcDbEntity
  8
Kontur
  6
Continuous
 62
     7
100
AcDbLine
 10
131.606969148
 20
209.2582605528
 30
0.0
 11
130.0844795076
 21
208.9928019119
 31
0.0
  0
ARC
  5
EF
330
1F
100
AcDbEntity
  8
Kontur
  6
Continuous
 62
     7
100
AcDbCircle
 10
129.6059684693
 20
209.4713129503
 30
0.0
 40
2.012310870745979
100
AcDbArc
 50
83.9224477072
 51
96.0775522928
  0
ARC
  5
F0
330
1F
100
AcDbEntity
  8
Kontur
  6
Continuous
 62
     7
100
AcDbCircle
 10
129.6059684693
 20
209.4713129503
 30
0.0
 40
2.012310870745979
100
AcDbArc
 50
353.9224477072
 51
6.0775522928
  0
ARC
  5
F1
330
1F
100
AcDbEntity
  8
Kontur
  6
Continuous
 62
     7
100
AcDbCircle
 10
129.6059684693
 20
209.4713129503
 30
0.0
 40
2.012310870745979
100
AcDbArc
 50
173.9224477072
 51
186.0775522928
  0
ARC
  5
F2
330
1F
100
AcDbEntity
  8
Kontur
  6
Continuous
 62
     7
100
AcDbCircle
 10
129.6059684693
 20
209.4713129503
 30
0.0
 40
2.012310870745979
100
AcDbArc
 50
263.9224477072
 51
276.0775522928
  0
CIRCLE
  5
F3
330
1F
100
AcDbEntity
  8
Kontur
  6
Continuous
 62
     7
100
AcDbCircle
 10
137.1059684693
 20
209.4713129503
 30
0.0
 40
2.5
  0
LINE
  5
F4
330
1F
100
AcDbEntity
  8
Kontur
  6
Continuous
 62
     7
100
AcDbLine
 10
136.8929160718
 20
211.472313629
 30
0.0
 11
136.6274574309
 21
209.9498239886
 31
0.0
  0
LINE
  5
F5
330
1F
100
AcDbEntity
  8
Kontur
  6
Continuous
 62
     7
100
AcDbLine
 10
137.3190208667
 20
211.472313629
 30
0.0
 11
137.5844795076
 21
209.9498239886
 31
0.0
  0
LINE
  5
F6
330
1F
100
AcDbEntity
  8
Kontur
  6
Continuous
 62
     7
100
AcDbLine
 10
135.1049677905
 20
209.2582605528
 30
0.0
 11
136.6274574309
 21
208.9928019119
 31
0.0
  0
LINE
  5
F7
330
1F
100
AcDbEntity
  8
Kontur
  6
Continuous
 62
     7
100
AcDbLine
 10
135.1049677905
 20
209.6843653477
 30
0.0
 11
136.6274574309
 21
209.9498239886
 31
0.0
  0
LINE
  5
F8
330
1F
100
AcDbEntity
  8
Kontur
  6
Continuous
 62
     7
100
AcDbLine
 10
137.3190208667
 20
207.4703122715
 30
0.0
 11
137.5844795076
 21
208.9928019119
 31
0.0
  0
LINE
  5
F9
330
1F
100
AcDbEntity
  8
Kontur
  6
Continuous
 62
     7
100
AcDbLine
 10
136.8929160718
 20
207.4703122715
 30
0.0
 11
136.6274574309
 21
208.9928019119
 31
0.0
  0
LINE
  5
FA
330
1F
100
AcDbEntity
  8
Kontur
  6
Continuous
 62
     7
100
AcDbLine
 10
139.106969148
 20
209.6843653477
 30
0.0
 11
137.5844795076
 21
209.9498239886
 31
0.0
  0
LINE
  5
FB
330
1F
100
AcDbEntity
  8
Kontur
  6
Continuous
 62
     7
100
AcDbLine
 10
139.106969148
 20
209.2582605528
 30
0.0
 11
137.5844795076
 21
208.9928019119
 31
0.0
  0
ARC
  5
FC
330
1F
100
AcDbEntity
  8
Kontur
  6
Continuous
 62
     7
100
AcDbCircle
 10
137.1059684693
 20
209.4713129503
 30
0.0
 40
2.012310870745979
100
AcDbArc
 50
83.9224477072
 51
96.0775522928
  0
ARC
  5
FD
330
1F
100
AcDbEntity
  8
Kontur
  6
Continuous
 62
     7
100
AcDbCircle
 10
137.1059684693
 20
209.4713129503
 30
0.0
 40
2.012310870745979
100
AcDbArc
 50
353.9224477072
 51
6.0775522928
  0
ARC
  5
FE
330
1F
100
AcDbEntity
  8
Kontur
  6
Continuous
 62
     7
100
AcDbCircle
 10
137.1059684693
 20
209.4713129503
 30
0.0
 40
2.012310870745979
100
AcDbArc
 50
173.9224477072
 51
186.0775522928
  0
ARC
  5
FF
330
1F
100
AcDbEntity
  8
Kontur
  6
Continuous
 62
     7
100
AcDbCircle
 10
137.1059684693
 20
209.4713129503
 30
0.0
 40
2.012310870745979
100
AcDbArc
 50
263.9224477072
 51
276.0775522928
  0
CIRCLE
  5
100
330
1F
100
AcDbEntity
  8
Kontur
  6
Continuous
 62
     7
100
AcDbCircle
 10
158.3559684693
 20
188.2213129503
 30
0.0
 40
2.5
  0
LINE
  5
101
330
1F
100
AcDbEntity
  8
Kontur
  6
Continuous
 62
     7
100
AcDbLine
 10
158.1429160718
 20
190.222313629
 30
0.0
 11
157.8774574309
 21
188.6998239886
 31
0.0
  0
LINE
  5
102
330
1F
100
AcDbEntity
  8
Kontur
  6
Continuous
 62
     7
100
AcDbLine
 10
158.5690208667
 20
190.222313629
 30
0.0
 11
158.8344795076
 21
188.6998239886
 31
0.0
  0
LINE
  5
103
330
1F
100
AcDbEntity
  8
Kontur
  6
Continuous
 62
     7
100
AcDbLine
 10
156.3549677905
 20
188.0082605528
 30
0.0
 11
157.8774574309
 21
187.7428019119
 31
0.0
  0
LINE
  5
104
330
1F
100
AcDbEntity
  8
Kontur
  6
Continuous
 62
     7
100
AcDbLine
 10
156.3549677905
 20
188.4343653477
 30
0.0
 11
157.8774574309
 21
188.6998239886
 31
0.0
  0
LINE
  5
105
330
1F
100
AcDbEntity
  8
Kontur
  6
Continuous
 62
     7
100
AcDbLine
 10
158.5690208667
 20
186.2203122715
 30
0.0
 11
158.8344795076
 21
187.7428019119
 31
0.0
  0
LINE
  5
106
330
1F
100
AcDbEntity
  8
Kontur
  6
Continuous
 62
     7
100
AcDbLine
 10
158.1429160718
 20
186.2203122715
 30
0.0
 11
157.8774574309
 21
187.7428019119
 31
0.0
  0
LINE
  5
107
330
1F
100
AcDbEntity
  8
Kontur
  6
Continuous
 62
     7
100
AcDbLine
 10
160.356969148
 20
188.4343653477
 30
0.0
 11
158.8344795076
 21
188.6998239886
 31
0.0
  0
LINE
  5
108
330
1F
100
AcDbEntity
  8
Kontur
  6
Continuous
 62
     7
100
AcDbLine
 10
160.356969148
 20
188.0082605528
 30
0.0
 11
158.8344795076
 21
187.7428019119
 31
0.0
  0
ARC
  5
109
330
1F
100
AcDbEntity
  8
Kontur
  6
Continuous
 62
     7
100
AcDbCircle
 10
158.3559684693
 20
188.2213129503
 30
0.0
 40
2.012310870745979
100
AcDbArc
 50
83.9224477072
 51
96.0775522928
  0
ARC
  5
10A
330
1F
100
AcDbEntity
  8
Kontur
  6
Continuous
 62
     7
100
AcDbCircle
 10
158.3559684693
 20
188.2213129503
 30
0.0
 40
2.012310870745979
100
AcDbArc
 50
353.9224477072
 51
6.0775522928
  0
ARC
  5
10B
330
1F
100
AcDbEntity
  8
Kontur
  6
Continuous
 62
     7
100
AcDbCircle
 10
158.3559684693
 20
188.2213129503
 30
0.0
 40
2.012310870745979
100
AcDbArc
 50
173.9224477072
 51
186.0775522928
  0
ARC
  5
10C
330
1F
100
AcDbEntity
  8
Kontur
  6
Continuous
 62
     7
100
AcDbCircle
 10
158.3559684693
 20
188.2213129503
 30
0.0
 40
2.012310870745979
100
AcDbArc
 50
263.9224477072
 51
276.0775522928
  0
CIRCLE
  5
10D
330
1F
100
AcDbEntity
  8
Kontur
  6
Continuous
 62
     7
100
AcDbCircle
 10
158.3559684693
 20
180.7213129503
 30
0.0
 40
2.5
  0
LINE
  5
10E
330
1F
100
AcDbEntity
  8
Kontur
  6
Continuous
 62
     7
100
AcDbLine
 10
158.1429160718
 20
182.722313629
 30
0.0
 11
157.8774574309
 21
181.1998239886
 31
0.0
  0
LINE
  5
10F
330
1F
100
AcDbEntity
  8
Kontur
  6
Continuous
 62
     7
100
AcDbLine
 10
158.5690208667
 20
182.722313629
 30
0.0
 11
158.8344795076
 21
181.1998239886
 31
0.0
  0
LINE
  5
110
330
1F
100
AcDbEntity
  8
Kontur
  6
Continuous
 62
     7
100
AcDbLine
 10
156.3549677905
 20
180.5082605528
 30
0.0
 11
157.8774574309
 21
180.2428019119
 31
0.0
  0
LINE
  5
111
330
1F
100
AcDbEntity
  8
Kontur
  6
Continuous
 62
     7
100
AcDbLine
 10
156.3549677905
 20
180.9343653477
 30
0.0
 11
157.8774574309
 21
181.1998239886
 31
0.0
  0
LINE
  5
112
330
1F
100
AcDbEntity
  8
Kontur
  6
Continuous
 62
     7
100
AcDbLine
 10
158.5690208667
 20
178.7203122715
 30
0.0
 11
158.8344795076
 21
180.2428019119
 31
0.0
  0
LINE
  5
113
330
1F
100
AcDbEntity
  8
Kontur
  6
Continuous
 62
     7
100
AcDbLine
 10
158.1429160718
 20
178.7203122715
 30
0.0
 11
157.8774574309
 21
180.2428019119
 31
0.0
  0
LINE
  5
114
330
1F
100
AcDbEntity
  8
Kontur
  6
Continuous
 62
     7
100
AcDbLine
 10
160.356969148
 20
180.9343653477
 30
0.0
 11
158.8344795076
 21
181.1998239886
 31
0.0
  0
LINE
  5
115
330
1F
100
AcDbEntity
  8
Kontur
  6
Continuous
 62
     7
100
AcDbLine
 10
160.356969148
 20
180.5082605528
 30
0.0
 11
158.8344795076
 21
180.2428019119
 31
0.0
  0
ARC
  5
116
330
1F
100
AcDbEntity
  8
Kontur
  6
Continuous
 62
     7
100
AcDbCircle
 10
158.3559684693
 20
180.7213129503
 30
0.0
 40
2.012310870745979
100
AcDbArc
 50
83.9224477072
 51
96.0775522928
  0
ARC
  5
117
330
1F
100
AcDbEntity
  8
Kontur
  6
Continuous
 62
     7
100
AcDbCircle
 10
158.3559684693
 20
180.7213129503
 30
0.0
 40
2.012310870745979
100
AcDbArc
 50
353.9224477072
 51
6.0775522928
  0
ARC
  5
118
330
1F
100
AcDbEntity
  8
Kontur
  6
Continuous
 62
     7
100
AcDbCircle
 10
158.3559684693
 20
180.7213129503
 30
0.0
 40
2.012310870745979
100
AcDbArc
 50
173.9224477072
 51
186.0775522928
  0
ARC
  5
119
330
1F
100
AcDbEntity
  8
Kontur
  6
Continuous
 62
     7
100
AcDbCircle
 10
158.3559684693
 20
180.7213129503
 30
0.0
 40
2.012310870745979
100
AcDbArc
 50
263.9224477072
 51
276.0775522928
  0
CIRCLE
  5
11A
330
1F
100
AcDbEntity
  8
Kontur
  6
Continuous
 62
     7
100
AcDbCircle
 10
158.3559684693
 20
173.2213129503
 30
0.0
 40
2.5
  0
LINE
  5
11B
330
1F
100
AcDbEntity
  8
Kontur
  6
Continuous
 62
     7
100
AcDbLine
 10
158.1429160718
 20
175.222313629
 30
0.0
 11
157.8774574309
 21
173.6998239886
 31
0.0
  0
LINE
  5
11C
330
1F
100
AcDbEntity
  8
Kontur
  6
Continuous
 62
     7
100
AcDbLine
 10
158.5690208667
 20
175.222313629
 30
0.0
 11
158.8344795076
 21
173.6998239886
 31
0.0
  0
LINE
  5
11D
330
1F
100
AcDbEntity
  8
Kontur
  6
Continuous
 62
     7
100
AcDbLine
 10
156.3549677905
 20
173.0082605528
 30
0.0
 11
157.8774574309
 21
172.7428019119
 31
0.0
  0
LINE
  5
11E
330
1F
100
AcDbEntity
  8
Kontur
  6
Continuous
 62
     7
100
AcDbLine
 10
156.3549677905
 20
173.4343653477
 30
0.0
 11
157.8774574309
 21
173.6998239886
 31
0.0
  0
LINE
  5
11F
330
1F
100
AcDbEntity
  8
Kontur
  6
Continuous
 62
     7
100
AcDbLine
 10
158.5690208667
 20
171.2203122715
 30
0.0
 11
158.8344795076
 21
172.7428019119
 31
0.0
  0
LINE
  5
120
330
1F
100
AcDbEntity
  8
Kontur
  6
Continuous
 62
     7
100
AcDbLine
 10
158.1429160718
 20
171.2203122715
 30
0.0
 11
157.8774574309
 21
172.7428019119
 31
0.0
  0
LINE
  5
121
330
1F
100
AcDbEntity
  8
Kontur
  6
Continuous
 62
     7
100
AcDbLine
 10
160.356969148
 20
173.4343653477
 30
0.0
 11
158.8344795076
 21
173.6998239886
 31
0.0
  0
LINE
  5
122
330
1F
100
AcDbEntity
  8
Kontur
  6
Continuous
 62
     7
100
AcDbLine
 10
160.356969148
 20
173.0082605528
 30
0.0
 11
158.8344795076
 21
172.7428019119
 31
0.0
  0
ARC
  5
123
330
1F
100
AcDbEntity
  8
Kontur
  6
Continuous
 62
     7
100
AcDbCircle
 10
158.3559684693
 20
173.2213129503
 30
0.0
 40
2.012310870745979
100
AcDbArc
 50
83.9224477072
 51
96.0775522928
  0
ARC
  5
124
330
1F
100
AcDbEntity
  8
Kontur
  6
Continuous
 62
     7
100
AcDbCircle
 10
158.3559684693
 20
173.2213129503
 30
0.0
 40
2.012310870745979
100
AcDbArc
 50
353.9224477072
 51
6.0775522928
  0
ARC
  5
125
330
1F
100
AcDbEntity
  8
Kontur
  6
Continuous
 62
     7
100
AcDbCircle
 10
158.3559684693
 20
173.2213129503
 30
0.0
 40
2.012310870745979
100
AcDbArc
 50
173.9224477072
 51
186.0775522928
  0
ARC
  5
126
330
1F
100
AcDbEntity
  8
Kontur
  6
Continuous
 62
     7
100
AcDbCircle
 10
158.3559684693
 20
173.2213129503
 30
0.0
 40
2.012310870745979
100
AcDbArc
 50
263.9224477072
 51
276.0775522928
  0
CIRCLE
  5
127
330
1F
100
AcDbEntity
  8
Kontur
  6
Continuous
 62
     7
100
AcDbCircle
 10
158.3559684693
 20
165.7213129503
 30
0.0
 40
2.5
  0
LINE
  5
128
330
1F
100
AcDbEntity
  8
Kontur
  6
Continuous
 62
     7
100
AcDbLine
 10
158.1429160718
 20
167.722313629
 30
0.0
 11
157.8774574309
 21
166.1998239886
 31
0.0
  0
LINE
  5
129
330
1F
100
AcDbEntity
  8
Kontur
  6
Continuous
 62
     7
100
AcDbLine
 10
158.5690208667
 20
167.722313629
 30
0.0
 11
158.8344795076
 21
166.1998239886
 31
0.0
  0
LINE
  5
12A
330
1F
100
AcDbEntity
  8
Kontur
  6
Continuous
 62
     7
100
AcDbLine
 10
156.3549677905
 20
165.5082605528
 30
0.0
 11
157.8774574309
 21
165.2428019119
 31
0.0
  0
LINE
  5
12B
330
1F
100
AcDbEntity
  8
Kontur
  6
Continuous
 62
     7
100
AcDbLine
 10
156.3549677905
 20
165.9343653477
 30
0.0
 11
157.8774574309
 21
166.1998239886
 31
0.0
  0
LINE
  5
12C
330
1F
100
AcDbEntity
  8
Kontur
  6
Continuous
 62
     7
100
AcDbLine
 10
158.5690208667
 20
163.7203122715
 30
0.0
 11
158.8344795076
 21
165.2428019119
 31
0.0
  0
LINE
  5
12D
330
1F
100
AcDbEntity
  8
Kontur
  6
Continuous
 62
     7
100
AcDbLine
 10
158.1429160718
 20
163.7203122715
 30
0.0
 11
157.8774574309
 21
165.2428019119
 31
0.0
  0
LINE
  5
12E
330
1F
100
AcDbEntity
  8
Kontur
  6
Continuous
 62
     7
100
AcDbLine
 10
160.356969148
 20
165.9343653477
 30
0.0
 11
158.8344795076
 21
166.1998239886
 31
0.0
  0
LINE
  5
12F
330
1F
100
AcDbEntity
  8
Kontur
  6
Continuous
 62
     7
100
AcDbLine
 10
160.356969148
 20
165.5082605528
 30
0.0
 11
158.8344795076
 21
165.2428019119
 31
0.0
  0
ARC
  5
130
330
1F
100
AcDbEntity
  8
Kontur
  6
Continuous
 62
     7
100
AcDbCircle
 10
158.3559684693
 20
165.7213129503
 30
0.0
 40
2.012310870745979
100
AcDbArc
 50
83.9224477072
 51
96.0775522928
  0
ARC
  5
131
330
1F
100
AcDbEntity
  8
Kontur
  6
Continuous
 62
     7
100
AcDbCircle
 10
158.3559684693
 20
165.7213129503
 30
0.0
 40
2.012310870745979
100
AcDbArc
 50
353.9224477072
 51
6.0775522928
  0
ARC
  5
132
330
1F
100
AcDbEntity
  8
Kontur
  6
Continuous
 62
     7
100
AcDbCircle
 10
158.3559684693
 20
165.7213129503
 30
0.0
 40
2.012310870745979
100
AcDbArc
 50
173.9224477072
 51
186.0775522928
  0
ARC
  5
133
330
1F
100
AcDbEntity
  8
Kontur
  6
Continuous
 62
     7
100
AcDbCircle
 10
158.3559684693
 20
165.7213129503
 30
0.0
 40
2.012310870745979
100
AcDbArc
 50
263.9224477072
 51
276.0775522928
  0
CIRCLE
  5
134
330
1F
100
AcDbEntity
  8
Kontur
  6
Continuous
 62
     7
100
AcDbCircle
 10
158.3559684693
 20
158.2213129503
 30
0.0
 40
2.5
  0
LINE
  5
135
330
1F
100
AcDbEntity
  8
Kontur
  6
Continuous
 62
     7
100
AcDbLine
 10
158.1429160718
 20
160.222313629
 30
0.0
 11
157.8774574309
 21
158.6998239886
 31
0.0
  0
LINE
  5
136
330
1F
100
AcDbEntity
  8
Kontur
  6
Continuous
 62
     7
100
AcDbLine
 10
158.5690208667
 20
160.222313629
 30
0.0
 11
158.8344795076
 21
158.6998239886
 31
0.0
  0
LINE
  5
137
330
1F
100
AcDbEntity
  8
Kontur
  6
Continuous
 62
     7
100
AcDbLine
 10
156.3549677905
 20
158.0082605528
 30
0.0
 11
157.8774574309
 21
157.7428019119
 31
0.0
  0
LINE
  5
138
330
1F
100
AcDbEntity
  8
Kontur
  6
Continuous
 62
     7
100
AcDbLine
 10
156.3549677905
 20
158.4343653477
 30
0.0
 11
157.8774574309
 21
158.6998239886
 31
0.0
  0
LINE
  5
139
330
1F
100
AcDbEntity
  8
Kontur
  6
Continuous
 62
     7
100
AcDbLine
 10
158.5690208667
 20
156.2203122715
 30
0.0
 11
158.8344795076
 21
157.7428019119
 31
0.0
  0
LINE
  5
13A
330
1F
100
AcDbEntity
  8
Kontur
  6
Continuous
 62
     7
100
AcDbLine
 10
158.1429160718
 20
156.2203122715
 30
0.0
 11
157.8774574309
 21
157.7428019119
 31
0.0
  0
LINE
  5
13B
330
1F
100
AcDbEntity
  8
Kontur
  6
Continuous
 62
     7
100
AcDbLine
 10
160.356969148
 20
158.4343653477
 30
0.0
 11
158.8344795076
 21
158.6998239886
 31
0.0
  0
LINE
  5
13C
330
1F
100
AcDbEntity
  8
Kontur
  6
Continuous
 62
     7
100
AcDbLine
 10
160.356969148
 20
158.0082605528
 30
0.0
 11
158.8344795076
 21
157.7428019119
 31
0.0
  0
ARC
  5
13D
330
1F
100
AcDbEntity
  8
Kontur
  6
Continuous
 62
     7
100
AcDbCircle
 10
158.3559684693
 20
158.2213129503
 30
0.0
 40
2.012310870745979
100
AcDbArc
 50
83.9224477072
 51
96.0775522928
  0
ARC
  5
13E
330
1F
100
AcDbEntity
  8
Kontur
  6
Continuous
 62
     7
100
AcDbCircle
 10
158.3559684693
 20
158.2213129503
 30
0.0
 40
2.012310870745979
100
AcDbArc
 50
353.9224477072
 51
6.0775522928
  0
ARC
  5
13F
330
1F
100
AcDbEntity
  8
Kontur
  6
Continuous
 62
     7
100
AcDbCircle
 10
158.3559684693
 20
158.2213129503
 30
0.0
 40
2.012310870745979
100
AcDbArc
 50
173.9224477072
 51
186.0775522928
  0
ARC
  5
140
330
1F
100
AcDbEntity
  8
Kontur
  6
Continuous
 62
     7
100
AcDbCircle
 10
158.3559684693
 20
158.2213129503
 30
0.0
 40
2.012310870745979
100
AcDbArc
 50
263.9224477072
 51
276.0775522928
  0
CIRCLE
  5
141
330
1F
100
AcDbEntity
  8
Kontur
  6
Continuous
 62
     7
100
AcDbCircle
 10
158.3559684693
 20
150.7213129503
 30
0.0
 40
2.5
  0
LINE
  5
142
330
1F
100
AcDbEntity
  8
Kontur
  6
Continuous
 62
     7
100
AcDbLine
 10
158.1429160718
 20
152.722313629
 30
0.0
 11
157.8774574309
 21
151.1998239886
 31
0.0
  0
LINE
  5
143
330
1F
100
AcDbEntity
  8
Kontur
  6
Continuous
 62
     7
100
AcDbLine
 10
158.5690208667
 20
152.722313629
 30
0.0
 11
158.8344795076
 21
151.1998239886
 31
0.0
  0
LINE
  5
144
330
1F
100
AcDbEntity
  8
Kontur
  6
Continuous
 62
     7
100
AcDbLine
 10
156.3549677905
 20
150.5082605528
 30
0.0
 11
157.8774574309
 21
150.2428019119
 31
0.0
  0
LINE
  5
145
330
1F
100
AcDbEntity
  8
Kontur
  6
Continuous
 62
     7
100
AcDbLine
 10
156.3549677905
 20
150.9343653477
 30
0.0
 11
157.8774574309
 21
151.1998239886
 31
0.0
  0
LINE
  5
146
330
1F
100
AcDbEntity
  8
Kontur
  6
Continuous
 62
     7
100
AcDbLine
 10
158.5690208667
 20
148.7203122715
 30
0.0
 11
158.8344795076
 21
150.2428019119
 31
0.0
  0
LINE
  5
147
330
1F
100
AcDbEntity
  8
Kontur
  6
Continuous
 62
     7
100
AcDbLine
 10
158.1429160718
 20
148.7203122715
 30
0.0
 11
157.8774574309
 21
150.2428019119
 31
0.0
  0
LINE
  5
148
330
1F
100
AcDbEntity
  8
Kontur
  6
Continuous
 62
     7
100
AcDbLine
 10
160.356969148
 20
150.9343653477
 30
0.0
 11
158.8344795076
 21
151.1998239886
 31
0.0
  0
LINE
  5
149
330
1F
100
AcDbEntity
  8
Kontur
  6
Continuous
 62
     7
100
AcDbLine
 10
160.356969148
 20
150.5082605528
 30
0.0
 11
158.8344795076
 21
150.2428019119
 31
0.0
  0
ARC
  5
14A
330
1F
100
AcDbEntity
  8
Kontur
  6
Continuous
 62
     7
100
AcDbCircle
 10
158.3559684693
 20
150.7213129503
 30
0.0
 40
2.012310870745979
100
AcDbArc
 50
83.9224477072
 51
96.0775522928
  0
ARC
  5
14B
330
1F
100
AcDbEntity
  8
Kontur
  6
Continuous
 62
     7
100
AcDbCircle
 10
158.3559684693
 20
150.7213129503
 30
0.0
 40
2.012310870745979
100
AcDbArc
 50
353.9224477072
 51
6.0775522928
  0
ARC
  5
14C
330
1F
100
AcDbEntity
  8
Kontur
  6
Continuous
 62
     7
100
AcDbCircle
 10
158.3559684693
 20
150.7213129503
 30
0.0
 40
2.012310870745979
100
AcDbArc
 50
173.9224477072
 51
186.0775522928
  0
ARC
  5
14D
330
1F
100
AcDbEntity
  8
Kontur
  6
Continuous
 62
     7
100
AcDbCircle
 10
158.3559684693
 20
150.7213129503
 30
0.0
 40
2.012310870745979
100
AcDbArc
 50
263.9224477072
 51
276.0775522928
  0
CIRCLE
  5
14E
330
1F
100
AcDbEntity
  8
Kontur
  6
Continuous
 62
     7
100
AcDbCircle
 10
158.3559684693
 20
143.2213129503
 30
0.0
 40
2.5
  0
LINE
  5
14F
330
1F
100
AcDbEntity
  8
Kontur
  6
Continuous
 62
     7
100
AcDbLine
 10
158.1429160718
 20
145.222313629
 30
0.0
 11
157.8774574309
 21
143.6998239886
 31
0.0
  0
LINE
  5
150
330
1F
100
AcDbEntity
  8
Kontur
  6
Continuous
 62
     7
100
AcDbLine
 10
158.5690208667
 20
145.222313629
 30
0.0
 11
158.8344795076
 21
143.6998239886
 31
0.0
  0
LINE
  5
151
330
1F
100
AcDbEntity
  8
Kontur
  6
Continuous
 62
     7
100
AcDbLine
 10
156.3549677905
 20
143.0082605528
 30
0.0
 11
157.8774574309
 21
142.7428019119
 31
0.0
  0
LINE
  5
152
330
1F
100
AcDbEntity
  8
Kontur
  6
Continuous
 62
     7
100
AcDbLine
 10
156.3549677905
 20
143.4343653477
 30
0.0
 11
157.8774574309
 21
143.6998239886
 31
0.0
  0
LINE
  5
153
330
1F
100
AcDbEntity
  8
Kontur
  6
Continuous
 62
     7
100
AcDbLine
 10
158.5690208667
 20
141.2203122715
 30
0.0
 11
158.8344795076
 21
142.7428019119
 31
0.0
  0
LINE
  5
154
330
1F
100
AcDbEntity
  8
Kontur
  6
Continuous
 62
     7
100
AcDbLine
 10
158.1429160718
 20
141.2203122715
 30
0.0
 11
157.8774574309
 21
142.7428019119
 31
0.0
  0
LINE
  5
155
330
1F
100
AcDbEntity
  8
Kontur
  6
Continuous
 62
     7
100
AcDbLine
 10
160.356969148
 20
143.4343653477
 30
0.0
 11
158.8344795076
 21
143.6998239886
 31
0.0
  0
LINE
  5
156
330
1F
100
AcDbEntity
  8
Kontur
  6
Continuous
 62
     7
100
AcDbLine
 10
160.356969148
 20
143.0082605528
 30
0.0
 11
158.8344795076
 21
142.7428019119
 31
0.0
  0
ARC
  5
157
330
1F
100
AcDbEntity
  8
Kontur
  6
Continuous
 62
     7
100
AcDbCircle
 10
158.3559684693
 20
143.2213129503
 30
0.0
 40
2.012310870745979
100
AcDbArc
 50
83.9224477072
 51
96.0775522928
  0
ARC
  5
158
330
1F
100
AcDbEntity
  8
Kontur
  6
Continuous
 62
     7
100
AcDbCircle
 10
158.3559684693
 20
143.2213129503
 30
0.0
 40
2.012310870745979
100
AcDbArc
 50
353.9224477072
 51
6.0775522928
  0
ARC
  5
159
330
1F
100
AcDbEntity
  8
Kontur
  6
Continuous
 62
     7
100
AcDbCircle
 10
158.3559684693
 20
143.2213129503
 30
0.0
 40
2.012310870745979
100
AcDbArc
 50
173.9224477072
 51
186.0775522928
  0
ARC
  5
15A
330
1F
100
AcDbEntity
  8
Kontur
  6
Continuous
 62
     7
100
AcDbCircle
 10
158.3559684693
 20
143.2213129503
 30
0.0
 40
2.012310870745979
100
AcDbArc
 50
263.9224477072
 51
276.0775522928
  0
CIRCLE
  5
15B
330
1F
100
AcDbEntity
  8
Kontur
  6
Continuous
 62
     7
100
AcDbCircle
 10
158.3559684693
 20
135.7213129503
 30
0.0
 40
2.5
  0
LINE
  5
15C
330
1F
100
AcDbEntity
  8
Kontur
  6
Continuous
 62
     7
100
AcDbLine
 10
158.1429160718
 20
137.722313629
 30
0.0
 11
157.8774574309
 21
136.1998239886
 31
0.0
  0
LINE
  5
15D
330
1F
100
AcDbEntity
  8
Kontur
  6
Continuous
 62
     7
100
AcDbLine
 10
158.5690208667
 20
137.722313629
 30
0.0
 11
158.8344795076
 21
136.1998239886
 31
0.0
  0
LINE
  5
15E
330
1F
100
AcDbEntity
  8
Kontur
  6
Continuous
 62
     7
100
AcDbLine
 10
156.3549677905
 20
135.5082605528
 30
0.0
 11
157.8774574309
 21
135.2428019119
 31
0.0
  0
LINE
  5
15F
330
1F
100
AcDbEntity
  8
Kontur
  6
Continuous
 62
     7
100
AcDbLine
 10
156.3549677905
 20
135.9343653477
 30
0.0
 11
157.8774574309
 21
136.1998239886
 31
0.0
  0
LINE
  5
160
330
1F
100
AcDbEntity
  8
Kontur
  6
Continuous
 62
     7
100
AcDbLine
 10
158.5690208667
 20
133.7203122715
 30
0.0
 11
158.8344795076
 21
135.2428019119
 31
0.0
  0
LINE
  5
161
330
1F
100
AcDbEntity
  8
Kontur
  6
Continuous
 62
     7
100
AcDbLine
 10
158.1429160718
 20
133.7203122715
 30
0.0
 11
157.8774574309
 21
135.2428019119
 31
0.0
  0
LINE
  5
162
330
1F
100
AcDbEntity
  8
Kontur
  6
Continuous
 62
     7
100
AcDbLine
 10
160.356969148
 20
135.9343653477
 30
0.0
 11
158.8344795076
 21
136.1998239886
 31
0.0
  0
LINE
  5
163
330
1F
100
AcDbEntity
  8
Kontur
  6
Continuous
 62
     7
100
AcDbLine
 10
160.356969148
 20
135.5082605528
 30
0.0
 11
158.8344795076
 21
135.2428019119
 31
0.0
  0
ARC
  5
164
330
1F
100
AcDbEntity
  8
Kontur
  6
Continuous
 62
     7
100
AcDbCircle
 10
158.3559684693
 20
135.7213129503
 30
0.0
 40
2.012310870745979
100
AcDbArc
 50
83.9224477072
 51
96.0775522928
  0
ARC
  5
165
330
1F
100
AcDbEntity
  8
Kontur
  6
Continuous
 62
     7
100
AcDbCircle
 10
158.3559684693
 20
135.7213129503
 30
0.0
 40
2.012310870745979
100
AcDbArc
 50
353.9224477072
 51
6.0775522928
  0
ARC
  5
166
330
1F
100
AcDbEntity
  8
Kontur
  6
Continuous
 62
     7
100
AcDbCircle
 10
158.3559684693
 20
135.7213129503
 30
0.0
 40
2.012310870745979
100
AcDbArc
 50
173.9224477072
 51
186.0775522928
  0
ARC
  5
167
330
1F
100
AcDbEntity
  8
Kontur
  6
Continuous
 62
     7
100
AcDbCircle
 10
158.3559684693
 20
135.7213129503
 30
0.0
 40
2.012310870745979
100
AcDbArc
 50
263.9224477072
 51
276.0775522928
  0
INSERT
  5
169
330
1F
100
AcDbEntity
  8
Kontur
100
AcDbBlockReference
  2
SEANNOT_GROUP4
 10
0.0
 20
0.0
 30
0.0
  0
INSERT
  5
170
330
1F
100
AcDbEntity
  8
Kontur
100
AcDbBlockReference
  2
SEANNOT_GROUP5
 10
0.0
 20
0.0
 30
0.0
  0
INSERT
  5
176
330
1F
100
AcDbEntity
  8
Kontur
100
AcDbBlockReference
  2
SEANNOT_GROUP6
 10
0.0
 20
0.0
 30
0.0
  0
INSERT
  5
17C
330
1F
100
AcDbEntity
  8
Kontur
100
AcDbBlockReference
  2
SEANNOT_GROUP7
 10
0.0
 20
0.0
 30
0.0
  0
INSERT
  5
184
330
1F
100
AcDbEntity
  8
Kontur
100
AcDbBlockReference
  2
SEANNOT_GROUP8
 10
0.0
 20
0.0
 30
0.0
  0
INSERT
  5
189
330
1F
100
AcDbEntity
  8
Kontur
100
AcDbBlockReference
  2
SEANNOT_GROUP9
 10
0.0
 20
0.0
 30
0.0
  0
LINE
  5
18E
330
1F
100
AcDbEntity
  8
Rahmen
  6
Continuous
 62
     7
100
AcDbLine
 10
203.2695735316
 20
291.5590525719
 30
0.0
 11
203.2695735316
 21
9.9059901295
 31
0.0
  0
LINE
  5
18F
330
1F
100
AcDbEntity
  8
Rahmen
  6
Continuous
 62
     7
100
AcDbLine
 10
18.8737596819
 20
291.5590525719
 30
0.0
 11
203.2695735316
 21
291.5590525719
 31
0.0
  0
LINE
  5
190
330
1F
100
AcDbEntity
  8
Rahmen
  6
Continuous
 62
     7
100
AcDbLine
 10
18.8737596819
 20
291.5590525719
 30
0.0
 11
18.8737596819
 21
9.9059901295
 31
0.0
  0
LINE
  5
191
330
1F
100
AcDbEntity
  8
Rahmen
  6
Continuous
 62
     7
100
AcDbLine
 10
18.8737596819
 20
9.9059901295
 30
0.0
 11
203.2695735316
 21
9.9059901295
 31
0.0
  0
LINE
  5
192
330
1F
100
AcDbEntity
  8
Rahmen
  6
Continuous
 62
     7
100
AcDbLine
 10
89.4727131443
 20
9.9059901295
 30
0.0
 11
89.4727131443
 21
33.9059901295
 31
0.0
  0
LINE
  5
193
330
1F
100
AcDbEntity
  8
Rahmen
  6
Continuous
 62
     7
100
AcDbLine
 10
101.4727131443
 20
9.9059901295
 30
0.0
 11
101.4727131443
 21
33.9059901295
 31
0.0
  0
LINE
  5
194
330
1F
100
AcDbEntity
  8
Rahmen
  6
Continuous
 62
     7
100
AcDbLine
 10
124.7227131443
 20
9.9059901295
 30
0.0
 11
124.7227131443
 21
33.9059901295
 31
0.0
  0
LINE
  5
195
330
1F
100
AcDbEntity
  8
Rahmen
  6
Continuous
 62
     7
100
AcDbLine
 10
190.2695735316
 20
9.9059901295
 30
0.0
 11
190.2695735316
 21
20.4059901295
 31
0.0
  0
LINE
  5
196
330
1F
100
AcDbEntity
  8
Rahmen
  6
Continuous
 62
     7
100
AcDbLine
 10
101.4727131443
 20
29.4059901295
 30
0.0
 11
167.5426934476
 21
29.4059901295
 31
0.0
  0
LINE
  5
197
330
1F
100
AcDbEntity
  8
Rahmen
  6
Continuous
 62
     7
100
AcDbLine
 10
101.4727131443
 20
24.9059901295
 30
0.0
 11
145.7488068032
 21
24.9059901295
 31
0.0
  0
LINE
  5
198
330
1F
100
AcDbEntity
  8
Rahmen
  6
Continuous
 62
     7
100
AcDbLine
 10
89.4727131443
 20
20.4059901295
 30
0.0
 11
203.2695735316
 21
20.4059901295
 31
0.0
  0
LINE
  5
199
330
1F
100
AcDbEntity
  8
Rahmen
  6
Continuous
 62
     7
100
AcDbLine
 10
167.5426934476
 20
20.4059901295
 30
0.0
 11
167.5426934476
 21
33.9059901295
 31
0.0
  0
LINE
  5
19A
330
1F
100
AcDbEntity
  8
Rahmen
  6
Continuous
 62
     7
100
AcDbLine
 10
145.7488068032
 20
20.4059901295
 30
0.0
 11
145.7488068032
 21
33.9059901295
 31
0.0
  0
TEXT
  5
19B
330
1F
100
AcDbEntity
  8
Rahmen
  6
Continuous
 62
     7
100
AcDbText
 10
193.7993000177
 20
17.649926564
 30
0.0
 40
1.875
  1
Blatt-Nr.
  7
SEACAD_seiso_ttf
 11
193.7993000177
 21
19.524926564
 31
0.0
100
AcDbText
 73
     3
  0
TEXT
  5
19C
330
1F
100
AcDbEntity
  8
Rahmen
  6
Continuous
 62
     7
100
AcDbText
 10
103.5154628752
 20
17.4317712768
 30
0.0
 40
1.875
  1
Allgemeintoleranzen
  7
SEACAD_seiso_ttf
 11
103.5154628752
 21
19.3067712768
 31
0.0
100
AcDbText
 73
     3
  0
TEXT
  5
19D
330
1F
100
AcDbEntity
  8
Rahmen
  6
Continuous
 62
     7
100
AcDbText
 10
111.2072242388
 20
14.3635894586
 30
0.0
 40
1.875
  1
ISO 
  7
SEACAD_seiso_ttf
 11
111.2072242388
 21
16.2385894586
 31
0.0
100
AcDbText
 73
     3
  0
TEXT
  5
19E
330
1F
100
AcDbEntity
  8
Rahmen
  6
Continuous
 62
     7
100
AcDbText
 10
108.3947242388
 20
11.2954076405
 30
0.0
 40
1.875
  1
2768-mK
  7
SEACAD_seiso_ttf
 11
108.3947242388
 21
13.1704076405
 31
0.0
100
AcDbText
 73
     3
  0
TEXT
  5
19F
330
1F
100
AcDbEntity
  8
Rahmen
  6
Continuous
 62
     7
100
AcDbText
 10
89.6764648871
 20
17.4390270281
 30
0.0
 40
2.0
  1
Oberflächen
  7
SEACAD_seiso_ttf
 11
89.6764648871
 21
19.4390270281
 31
0.0
100
AcDbText
 73
     3
  0
TEXT
  5
1A0
330
1F
100
AcDbEntity
  8
Rahmen
  6
Continuous
 62
     7
100
AcDbText
 10
92.1310103417
 20
14.1662997554
 30
0.0
 40
2.0
  1
DIN ISO
  7
SEACAD_seiso_ttf
 11
92.1310103417
 21
16.1662997554
 31
0.0
100
AcDbText
 73
     3
  0
TEXT
  5
1A1
330
1F
100
AcDbEntity
  8
Rahmen
  6
Continuous
 62
     7
100
AcDbText
 10
91.7219194326
 20
10.8935724827
 30
0.0
 40
2.0
  1
1302 R2
  7
SEACAD_seiso_ttf
 11
91.7219194326
 21
12.8935724827
 31
0.0
100
AcDbText
 73
     3
  0
TEXT
  5
1A2
330
1F
100
AcDbEntity
  8
Rahmen
  6
Continuous
 62
     7
100
AcDbText
 10
147.0098750747
 20
30.7712696517
 30
0.0
 40
1.875
  1
Klasse
  7
SEACAD_seiso_ttf
 11
147.0098750747
 21
32.6462696517
 31
0.0
100
AcDbText
 73
     3
  0
TEXT
  5
1A3
330
1F
100
AcDbEntity
  8
Rahmen
  6
Continuous
 62
     7
100
AcDbText
 10
125.9982358201
 20
30.711710683
 30
0.0
 40
1.875
  1
Name
  7
SEACAD_seiso_ttf
 11
125.9982358201
 21
32.586710683
 31
0.0
100
AcDbText
 73
     3
  0
LINE
  5
1A4
330
1F
100
AcDbEntity
  8
Rahmen
  6
Continuous
 62
     7
100
AcDbLine
 10
110.4727131443
 20
20.4059901295
 30
0.0
 11
110.4727131443
 21
33.9059901295
 31
0.0
  0
TEXT
  5
1A5
330
1F
100
AcDbEntity
  8
Rahmen
  6
Continuous
 62
     7
100
AcDbText
 10
111.472189482
 20
30.7606932964
 30
0.0
 40
1.875
  1
Datum
  7
SEACAD_seiso_ttf
 11
111.472189482
 21
32.6356932964
 31
0.0
100
AcDbText
 73
     3
  0
TEXT
  5
1A6
330
1F
100
AcDbEntity
  8
Rahmen
  6
Continuous
 62
     7
100
AcDbText
 10
103.0732036228
 20
26.2376519697
 30
0.0
 40
1.875
  1
Bearb.:
  7
SEACAD_seiso_ttf
 11
103.0732036228
 21
28.1126519697
 31
0.0
100
AcDbText
 73
     3
  0
TEXT
  5
1A7
330
1F
100
AcDbEntity
  8
Rahmen
  6
Continuous
 62
     7
100
AcDbText
 10
102.4682658994
 20
21.7534906543
 30
0.0
 40
1.875
  1
Geprüft:
  7
SEACAD_seiso_ttf
 11
102.4682658994
 21
23.6284906543
 31
0.0
100
AcDbText
 73
     3
  0
TEXT
  5
1A8
330
1F
100
AcDbEntity
  8
Rahmen
  6
Continuous
 62
     7
100
AcDbText
 10
91.4743494484
 20
30.7668381258
 30
0.0
 40
1.875
  1
Maßstab
  7
SEACAD_seiso_ttf
 11
91.4743494484
 21
32.6418381258
 31
0.0
100
AcDbText
 73
     3
  0
LINE
  5
1A9
330
1F
100
AcDbEntity
  8
Rahmen
  6
Continuous
 62
     7
100
AcDbLine
 10
89.4727131443
 20
33.9059901295
 30
0.0
 11
203.2695735316
 21
33.9059901295
 31
0.0
  0
ENDSEC
  0
SECTION
  2
OBJECTS
  0
DICTIONARY
  5
C
330
0
100
AcDbDictionary
281
     1
  3
ACAD_GROUP
350
D
  3
ACAD_LAYOUT
350
1A
  3
ACAD_MLINESTYLE
350
17
  3
ACAD_PLOTSETTINGS
350
19
  3
ACAD_PLOTSTYLENAME
350
E
  0
DICTIONARY
  5
D
102
{ACAD_REACTORS
330
C
102
}
330
C
100
AcDbDictionary
281
     1
  0
DICTIONARY
  5
1A
102
{ACAD_REACTORS
330
C
102
}
330
C
100
AcDbDictionary
281
     1
  3
Layout1
350
1E
  3
Model
350
22
  0
DICTIONARY
  5
17
102
{ACAD_REACTORS
330
C
102
}
330
C
100
AcDbDictionary
281
     1
  3
Standard
350
18
  0
DICTIONARY
  5
19
102
{ACAD_REACTORS
330
C
102
}
330
C
100
AcDbDictionary
281
     1
  0
ACDBDICTIONARYWDFLT
  5
E
102
{ACAD_REACTORS
330
C
102
}
330
C
100
AcDbDictionary
281
     1
  3
Normal
350
F
100
AcDbDictionaryWithDefault
340
F
  0
LAYOUT
  5
1E
102
{ACAD_REACTORS
330
1A
102
}
330
1A
100
AcDbPlotSettings
  1

  2
none_device
  4

  6

 40
0.0
 41
0.0
 42
0.0
 43
0.0
 44
0.0
 45
0.0
 46
0.0
 47
0.0
 48
0.0
 49
0.0
140
0.0
141
0.0
142
1.0
143
1.0
 70
   688
 72
     0
 73
     0
 74
     5
  7

 75
    16
147
1.0
148
0.0
149
0.0
100
AcDbLayout
  1
Layout1
 70
     1
 71
     1
 10
0.0
 20
0.0
 11
210.0
 21
297.0
 12
0.0
 22
0.0
 32
0.0
 14
0.0
 24
0.0
 34
0.0
 15
210.0
 25
297.0
 35
0.0
146
0.0
 13
0.0
 23
0.0
 33
0.0
 16
1.0
 26
0.0
 36
0.0
 17
0.0
 27
1.0
 37
0.0
 76
     0
330
1B
  0
LAYOUT
  5
22
102
{ACAD_REACTORS
330
1A
102
}
330
1A
100
AcDbPlotSettings
  1

  2
none_device
  4

  6

 40
0.0
 41
0.0
 42
0.0
 43
0.0
 44
0.0
 45
0.0
 46
0.0
 47
0.0
 48
0.0
 49
0.0
140
0.0
141
0.0
142
1.0
143
1.0
 70
  1712
 72
     0
 73
     0
 74
     0
  7

 75
     0
147
1.0
148
0.0
149
0.0
100
AcDbLayout
  1
Model
 70
     1
 71
     0
 10
0.0
 20
0.0
 11
210.0
 21
297.0
 12
0.0
 22
0.0
 32
0.0
 14
0.0
 24
0.0
 34
0.0
 15
210.0
 25
297.0
 35
0.0
146
0.0
 13
0.0
 23
0.0
 33
0.0
 16
1.0
 26
0.0
 36
0.0
 17
0.0
 27
1.0
 37
0.0
 76
     0
330
1F
  0
MLINESTYLE
  5
18
102
{ACAD_REACTORS
330
17
102
}
330
17
100
AcDbMlineStyle
  2
Standard
 70
     0
  3

 62
   256
 51
90.0
 52
90.0
 71
     2
 49
0.5
 62
   256
  6
BYLAYER
 49
-0.5
 62
   256
  6
BYLAYER
  0
ACDBPLACEHOLDER
  5
F
102
{ACAD_REACTORS
330
E
102
}
330
E
  0
ENDSEC
  0
EOF
